  0
SECTION
  2
HEADER
  9
$EXTMIN
 10
-3.501000
 20
-3.501000
  9
$EXTMAX
 10
4.896000
 20
3.501000
  9
$LIMMIN
 10
-3.501000
 20
-3.501000
  9
$LIMMAX
 10
4.896000
 20
3.501000
  9
$FILLMODE
 70
  1
  0
ENDSEC
  0
SECTION
  2
TABLES
  0
TABLE
  2
LTYPE
 70
  1
  0
LTYPE
  2
CONTINUOUS
 70
 64
  3
Solid line
 72
 65
 73
  0
 40
0.0
  0
ENDTAB
  0
TABLE
  2
LAYER
 70
 1
  0
LAYER
  2
0
 70
  0
 62
7
  6
CONTINUOUS
  0
LAYER
  2
trigger3
 70
  0
 62
1
  6
CONTINUOUS
  0
LAYER
  2
trigger3
 70
  0
 62
3
  6
CONTINUOUS
  0
ENDTAB
  0
TABLE
  2
STYLE
 70
  1
  0
STYLE
  2
STANDARD
 70
  0
 40
0.0
 41
1.0
 50
0.0
 71
  0
 42
0.2
  3
txt
  4

  0
ENDTAB
  0
ENDSEC
  0
SECTION
  2
BLOCKS
  0
BLOCK
  8
0
  2
D10
 70
64
 10
0.0
 20
0.0
  3
D10
  0
CIRCLE
  8
0
 10
0.000000
 20
0.000000
 40
0.000500
 0
ENDBLK
  8
0
  0
BLOCK
  8
0
  2
D11
 70
64
 10
0.0
 20
0.0
  3
D11
  0
CIRCLE
  8
0
 10
0.000000
 20
0.000000
 40
0.005000
 0
ENDBLK
  8
0
  0
ENDSEC
  0
SECTION
  2
ENTITIES
  0
POLYLINE
  8
trigger3
 62
1
 40
0.001000
 41
0.001000
 66
  1
 70
  1
  0
VERTEX
  8
trigger3
 10
2.415000
 20
0.000000
  0
VERTEX
  8
trigger3
 10
2.415000
 20
0.000000
  0
VERTEX
  8
trigger3
 10
2.415000
 20
0.000000
 42
1.000000
  0
VERTEX
  8
trigger3
 10
-2.415000
 20
0.000000
  0
VERTEX
  8
trigger3
 10
-2.415000
 20
0.000000
  0
VERTEX
  8
trigger3
 10
-2.415000
 20
0.000000
 42
1.000000
  0
VERTEX
  8
trigger3
 10
2.415000
 20
0.000000
  0
VERTEX
  8
trigger3
 10
2.415000
 20
0.000000
  0
SEQEND
  8
trigger3
  0
POLYLINE
  8
trigger3
 62
1
 40
0.001000
 41
0.001000
 66
  1
 70
  0
  0
VERTEX
  8
trigger3
 10
3.199000
 20
0.079000
  0
VERTEX
  8
trigger3
 10
3.199000
 20
0.079000
  0
VERTEX
  8
trigger3
 10
3.199000
 20
0.079000
 42
0.414214
  0
VERTEX
  8
trigger3
 10
3.278000
 20
0.000000
  0
VERTEX
  8
trigger3
 10
3.278000
 20
0.000000
  0
SEQEND
  8
trigger3
  0
POLYLINE
  8
trigger3
 62
1
 40
0.001000
 41
0.001000
 66
  1
 70
  0
  0
VERTEX
  8
trigger3
 10
3.199000
 20
0.078000
  0
VERTEX
  8
trigger3
 10
3.199000
 20
0.078000
  0
VERTEX
  8
trigger3
 10
3.199000
 20
0.078000
 42
0.012011
  0
VERTEX
  8
trigger3
 10
3.193000
 20
0.207000
  0
VERTEX
  8
trigger3
 10
3.193000
 20
0.207000
  0
SEQEND
  8
trigger3
  0
POLYLINE
  8
trigger3
 62
1
 40
0.001000
 41
0.001000
 66
  1
 70
  0
  0
VERTEX
  8
trigger3
 10
3.199000
 20
0.079000
  0
VERTEX
  8
trigger3
 10
3.199000
 20
0.079000
  0
VERTEX
  8
trigger3
 10
3.199000
 20
0.079000
 42
0.414214
  0
VERTEX
  8
trigger3
 10
3.278000
 20
0.000000
  0
VERTEX
  8
trigger3
 10
3.278000
 20
0.000000
  0
SEQEND
  8
trigger3
  0
POLYLINE
  8
trigger3
 62
1
 40
0.001000
 41
0.001000
 66
  1
 70
  0
  0
VERTEX
  8
trigger3
 10
3.166000
 20
0.848000
  0
VERTEX
  8
trigger3
 10
3.166000
 20
0.848000
  0
VERTEX
  8
trigger3
 10
3.166000
 20
0.848000
 42
0.398405
  0
VERTEX
  8
trigger3
 10
3.109000
 20
0.756000
  0
VERTEX
  8
trigger3
 10
3.109000
 20
0.756000
  0
SEQEND
  8
trigger3
  0
POLYLINE
  8
trigger3
 62
1
 40
0.001000
 41
0.001000
 66
  1
 70
  0
  0
VERTEX
  8
trigger3
 10
3.381000
 20
0.906000
  0
VERTEX
  8
trigger3
 10
3.381000
 20
0.906000
  0
VERTEX
  8
trigger3
 10
3.381000
 20
0.906000
 42
0.022589
  0
VERTEX
  8
trigger3
 10
3.289000
 20
1.197000
  0
VERTEX
  8
trigger3
 10
3.289000
 20
1.197000
  0
SEQEND
  8
trigger3
  0
POLYLINE
  8
trigger3
 62
1
 40
0.001000
 41
0.001000
 66
  1
 70
  0
  0
VERTEX
  8
trigger3
 10
3.172000
 20
1.479000
  0
VERTEX
  8
trigger3
 10
3.172000
 20
1.479000
  0
VERTEX
  8
trigger3
 10
3.172000
 20
1.479000
 42
0.021628
  0
VERTEX
  8
trigger3
 10
3.031000
 20
1.750000
  0
VERTEX
  8
trigger3
 10
3.031000
 20
1.750000
  0
SEQEND
  8
trigger3
  0
POLYLINE
  8
trigger3
 62
1
 40
0.001000
 41
0.001000
 66
  1
 70
  0
  0
VERTEX
  8
trigger3
 10
2.979000
 20
1.168000
  0
VERTEX
  8
trigger3
 10
2.979000
 20
1.168000
  0
VERTEX
  8
trigger3
 10
2.979000
 20
1.168000
 42
0.414214
  0
VERTEX
  8
trigger3
 10
3.080000
 20
1.121000
  0
VERTEX
  8
trigger3
 10
3.080000
 20
1.121000
  0
SEQEND
  8
trigger3
  0
POLYLINE
  8
trigger3
 62
1
 40
0.001000
 41
0.001000
 66
  1
 70
  0
  0
VERTEX
  8
trigger3
 10
2.979000
 20
1.168000
  0
VERTEX
  8
trigger3
 10
2.979000
 20
1.168000
  0
VERTEX
  8
trigger3
 10
2.979000
 20
1.168000
 42
0.009946
  0
VERTEX
  8
trigger3
 10
2.930000
 20
1.286000
  0
VERTEX
  8
trigger3
 10
2.930000
 20
1.286000
  0
SEQEND
  8
trigger3
  0
POLYLINE
  8
trigger3
 62
1
 40
0.001000
 41
0.001000
 66
  1
 70
  0
  0
VERTEX
  8
trigger3
 10
2.970000
 20
1.385000
  0
VERTEX
  8
trigger3
 10
2.970000
 20
1.385000
  0
VERTEX
  8
trigger3
 10
2.970000
 20
1.385000
 42
0.405172
  0
VERTEX
  8
trigger3
 10
2.930000
 20
1.284000
  0
VERTEX
  8
trigger3
 10
2.930000
 20
1.284000
  0
SEQEND
  8
trigger3
  0
POLYLINE
  8
trigger3
 62
1
 40
0.001000
 41
0.001000
 66
  1
 70
  0
  0
VERTEX
  8
trigger3
 10
2.685000
 20
1.880000
  0
VERTEX
  8
trigger3
 10
2.685000
 20
1.880000
  0
VERTEX
  8
trigger3
 10
2.685000
 20
1.880000
 42
0.402473
  0
VERTEX
  8
trigger3
 10
2.663000
 20
1.774000
  0
VERTEX
  8
trigger3
 10
2.663000
 20
1.774000
  0
SEQEND
  8
trigger3
  0
POLYLINE
  8
trigger3
 62
1
 40
0.001000
 41
0.001000
 66
  1
 70
  0
  0
VERTEX
  8
trigger3
 10
2.731000
 20
1.667000
  0
VERTEX
  8
trigger3
 10
2.731000
 20
1.667000
  0
VERTEX
  8
trigger3
 10
2.731000
 20
1.667000
 42
0.006240
  0
VERTEX
  8
trigger3
 10
2.662000
 20
1.776000
  0
VERTEX
  8
trigger3
 10
2.662000
 20
1.776000
  0
SEQEND
  8
trigger3
  0
POLYLINE
  8
trigger3
 62
1
 40
0.001000
 41
0.001000
 66
  1
 70
  0
  0
VERTEX
  8
trigger3
 10
2.731000
 20
1.668000
  0
VERTEX
  8
trigger3
 10
2.731000
 20
1.668000
  0
VERTEX
  8
trigger3
 10
2.731000
 20
1.668000
 42
0.404610
  0
VERTEX
  8
trigger3
 10
2.839000
 20
1.639000
  0
VERTEX
  8
trigger3
 10
2.839000
 20
1.639000
  0
SEQEND
  8
trigger3
  0
POLYLINE
  8
trigger3
 62
1
 40
0.001000
 41
0.001000
 66
  1
 70
  0
  0
VERTEX
  8
trigger3
 10
2.867000
 20
2.008000
  0
VERTEX
  8
trigger3
 10
2.867000
 20
2.008000
  0
VERTEX
  8
trigger3
 10
2.867000
 20
2.008000
 42
0.022509
  0
VERTEX
  8
trigger3
 10
2.681000
 20
2.250000
  0
VERTEX
  8
trigger3
 10
2.681000
 20
2.250000
  0
SEQEND
  8
trigger3
  0
POLYLINE
  8
trigger3
 62
1
 40
0.001000
 41
0.001000
 66
  1
 70
  0
  0
VERTEX
  8
trigger3
 10
2.475000
 20
2.475000
  0
VERTEX
  8
trigger3
 10
2.475000
 20
2.475000
  0
VERTEX
  8
trigger3
 10
2.475000
 20
2.475000
 42
0.022263
  0
VERTEX
  8
trigger3
 10
2.250000
 20
2.681000
  0
VERTEX
  8
trigger3
 10
2.250000
 20
2.681000
  0
SEQEND
  8
trigger3
  0
POLYLINE
  8
trigger3
 62
1
 40
0.001000
 41
0.001000
 66
  1
 70
  0
  0
VERTEX
  8
trigger3
 10
2.400000
 20
2.117000
  0
VERTEX
  8
trigger3
 10
2.400000
 20
2.117000
  0
VERTEX
  8
trigger3
 10
2.400000
 20
2.117000
 42
0.417078
  0
VERTEX
  8
trigger3
 10
2.511000
 20
2.107000
  0
VERTEX
  8
trigger3
 10
2.511000
 20
2.107000
  0
SEQEND
  8
trigger3
  0
POLYLINE
  8
trigger3
 62
1
 40
0.001000
 41
0.001000
 66
  1
 70
  0
  0
VERTEX
  8
trigger3
 10
2.400000
 20
2.116000
  0
VERTEX
  8
trigger3
 10
2.400000
 20
2.116000
  0
VERTEX
  8
trigger3
 10
2.400000
 20
2.116000
 42
0.008812
  0
VERTEX
  8
trigger3
 10
2.313000
 20
2.211000
  0
VERTEX
  8
trigger3
 10
2.313000
 20
2.211000
  0
SEQEND
  8
trigger3
  0
POLYLINE
  8
trigger3
 62
1
 40
0.001000
 41
0.001000
 66
  1
 70
  0
  0
VERTEX
  8
trigger3
 10
2.318000
 20
2.318000
  0
VERTEX
  8
trigger3
 10
2.318000
 20
2.318000
  0
VERTEX
  8
trigger3
 10
2.318000
 20
2.318000
 42
0.388299
  0
VERTEX
  8
trigger3
 10
2.314000
 20
2.209000
  0
VERTEX
  8
trigger3
 10
2.314000
 20
2.209000
  0
SEQEND
  8
trigger3
  0
POLYLINE
  8
trigger3
 62
1
 40
0.001000
 41
0.001000
 66
  1
 70
  0
  0
VERTEX
  8
trigger3
 10
1.880000
 20
2.685000
  0
VERTEX
  8
trigger3
 10
1.880000
 20
2.685000
  0
VERTEX
  8
trigger3
 10
1.880000
 20
2.685000
 42
0.396094
  0
VERTEX
  8
trigger3
 10
1.896000
 20
2.578000
  0
VERTEX
  8
trigger3
 10
1.896000
 20
2.578000
  0
SEQEND
  8
trigger3
  0
POLYLINE
  8
trigger3
 62
1
 40
0.001000
 41
0.001000
 66
  1
 70
  0
  0
VERTEX
  8
trigger3
 10
1.996000
 20
2.501000
  0
VERTEX
  8
trigger3
 10
1.996000
 20
2.501000
  0
VERTEX
  8
trigger3
 10
1.996000
 20
2.501000
 42
0.010690
  0
VERTEX
  8
trigger3
 10
1.894000
 20
2.579000
  0
VERTEX
  8
trigger3
 10
1.894000
 20
2.579000
  0
SEQEND
  8
trigger3
  0
POLYLINE
  8
trigger3
 62
1
 40
0.001000
 41
0.001000
 66
  1
 70
  0
  0
VERTEX
  8
trigger3
 10
1.996000
 20
2.501000
  0
VERTEX
  8
trigger3
 10
1.996000
 20
2.501000
  0
VERTEX
  8
trigger3
 10
1.996000
 20
2.501000
 42
0.418674
  0
VERTEX
  8
trigger3
 10
2.107000
 20
2.511000
  0
VERTEX
  8
trigger3
 10
2.107000
 20
2.511000
  0
SEQEND
  8
trigger3
  0
POLYLINE
  8
trigger3
 62
1
 40
0.001000
 41
0.001000
 66
  1
 70
  0
  0
VERTEX
  8
trigger3
 10
2.008000
 20
2.867000
  0
VERTEX
  8
trigger3
 10
2.008000
 20
2.867000
  0
VERTEX
  8
trigger3
 10
2.008000
 20
2.867000
 42
0.022917
  0
VERTEX
  8
trigger3
 10
1.750000
 20
3.031000
  0
VERTEX
  8
trigger3
 10
1.750000
 20
3.031000
  0
SEQEND
  8
trigger3
  0
POLYLINE
  8
trigger3
 62
1
 40
0.001000
 41
0.001000
 66
  1
 70
  0
  0
VERTEX
  8
trigger3
 10
1.479000
 20
3.172000
  0
VERTEX
  8
trigger3
 10
1.479000
 20
3.172000
  0
VERTEX
  8
trigger3
 10
1.479000
 20
3.172000
 42
0.021208
  0
VERTEX
  8
trigger3
 10
1.197000
 20
3.289000
  0
VERTEX
  8
trigger3
 10
1.197000
 20
3.289000
  0
SEQEND
  8
trigger3
  0
POLYLINE
  8
trigger3
 62
1
 40
0.001000
 41
0.001000
 66
  1
 70
  0
  0
VERTEX
  8
trigger3
 10
1.531000
 20
2.810000
  0
VERTEX
  8
trigger3
 10
1.531000
 20
2.810000
  0
VERTEX
  8
trigger3
 10
1.531000
 20
2.810000
 42
0.421922
  0
VERTEX
  8
trigger3
 10
1.639000
 20
2.839000
  0
VERTEX
  8
trigger3
 10
1.639000
 20
2.839000
  0
SEQEND
  8
trigger3
  0
POLYLINE
  8
trigger3
 62
1
 40
0.001000
 41
0.001000
 66
  1
 70
  0
  0
VERTEX
  8
trigger3
 10
1.532000
 20
2.810000
  0
VERTEX
  8
trigger3
 10
1.532000
 20
2.810000
  0
VERTEX
  8
trigger3
 10
1.532000
 20
2.810000
 42
0.011536
  0
VERTEX
  8
trigger3
 10
1.418000
 20
2.869000
  0
VERTEX
  8
trigger3
 10
1.418000
 20
2.869000
  0
SEQEND
  8
trigger3
  0
POLYLINE
  8
trigger3
 62
1
 40
0.001000
 41
0.001000
 66
  1
 70
  0
  0
VERTEX
  8
trigger3
 10
1.385000
 20
2.971000
  0
VERTEX
  8
trigger3
 10
1.385000
 20
2.971000
  0
VERTEX
  8
trigger3
 10
1.385000
 20
2.971000
 42
0.390429
  0
VERTEX
  8
trigger3
 10
1.419000
 20
2.868000
  0
VERTEX
  8
trigger3
 10
1.419000
 20
2.868000
  0
SEQEND
  8
trigger3
  0
POLYLINE
  8
trigger3
 62
1
 40
0.001000
 41
0.001000
 66
  1
 70
  0
  0
VERTEX
  8
trigger3
 10
0.848000
 20
3.166000
  0
VERTEX
  8
trigger3
 10
0.848000
 20
3.166000
  0
VERTEX
  8
trigger3
 10
0.848000
 20
3.166000
 42
0.389844
  0
VERTEX
  8
trigger3
 10
0.900000
 20
3.070000
  0
VERTEX
  8
trigger3
 10
0.900000
 20
3.070000
  0
SEQEND
  8
trigger3
  0
POLYLINE
  8
trigger3
 62
1
 40
0.001000
 41
0.001000
 66
  1
 70
  0
  0
VERTEX
  8
trigger3
 10
1.021000
 20
3.033000
  0
VERTEX
  8
trigger3
 10
1.021000
 20
3.033000
  0
VERTEX
  8
trigger3
 10
1.021000
 20
3.033000
 42
0.015017
  0
VERTEX
  8
trigger3
 10
0.898000
 20
3.071000
  0
VERTEX
  8
trigger3
 10
0.898000
 20
3.071000
  0
SEQEND
  8
trigger3
  0
POLYLINE
  8
trigger3
 62
1
 40
0.001000
 41
0.001000
 66
  1
 70
  0
  0
VERTEX
  8
trigger3
 10
1.020000
 20
3.033000
  0
VERTEX
  8
trigger3
 10
1.020000
 20
3.033000
  0
VERTEX
  8
trigger3
 10
1.020000
 20
3.033000
 42
0.414214
  0
VERTEX
  8
trigger3
 10
1.121000
 20
3.080000
  0
VERTEX
  8
trigger3
 10
1.121000
 20
3.080000
  0
SEQEND
  8
trigger3
  0
POLYLINE
  8
trigger3
 62
1
 40
0.001000
 41
0.001000
 66
  1
 70
  0
  0
VERTEX
  8
trigger3
 10
0.906000
 20
3.381000
  0
VERTEX
  8
trigger3
 10
0.906000
 20
3.381000
  0
VERTEX
  8
trigger3
 10
0.906000
 20
3.381000
 42
0.022056
  0
VERTEX
  8
trigger3
 10
0.608000
 20
3.447000
  0
VERTEX
  8
trigger3
 10
0.608000
 20
3.447000
  0
SEQEND
  8
trigger3
  0
POLYLINE
  8
trigger3
 62
1
 40
0.001000
 41
0.001000
 66
  1
 70
  0
  0
VERTEX
  8
trigger3
 10
0.305000
 20
3.487000
  0
VERTEX
  8
trigger3
 10
0.305000
 20
3.487000
  0
VERTEX
  8
trigger3
 10
0.305000
 20
3.487000
 42
0.022842
  0
VERTEX
  8
trigger3
 10
0.000000
 20
3.500000
  0
VERTEX
  8
trigger3
 10
0.000000
 20
3.500000
  0
SEQEND
  8
trigger3
  0
POLYLINE
  8
trigger3
 62
1
 40
0.001000
 41
0.001000
 66
  1
 70
  0
  0
VERTEX
  8
trigger3
 10
0.478000
 20
3.164000
  0
VERTEX
  8
trigger3
 10
0.478000
 20
3.164000
  0
VERTEX
  8
trigger3
 10
0.478000
 20
3.164000
 42
0.422370
  0
VERTEX
  8
trigger3
 10
0.569000
 20
3.228000
  0
VERTEX
  8
trigger3
 10
0.569000
 20
3.228000
  0
SEQEND
  8
trigger3
  0
POLYLINE
  8
trigger3
 62
1
 40
0.001000
 41
0.001000
 66
  1
 70
  0
  0
VERTEX
  8
trigger3
 10
0.479000
 20
3.164000
  0
VERTEX
  8
trigger3
 10
0.479000
 20
3.164000
  0
VERTEX
  8
trigger3
 10
0.479000
 20
3.164000
 42
0.008122
  0
VERTEX
  8
trigger3
 10
0.351000
 20
3.181000
  0
VERTEX
  8
trigger3
 10
0.351000
 20
3.181000
  0
SEQEND
  8
trigger3
  0
POLYLINE
  8
trigger3
 62
1
 40
0.001000
 41
0.001000
 66
  1
 70
  0
  0
VERTEX
  8
trigger3
 10
0.286000
 20
3.265000
  0
VERTEX
  8
trigger3
 10
0.286000
 20
3.265000
  0
VERTEX
  8
trigger3
 10
0.286000
 20
3.265000
 42
0.399128
  0
VERTEX
  8
trigger3
 10
0.353000
 20
3.180000
  0
VERTEX
  8
trigger3
 10
0.353000
 20
3.180000
  0
SEQEND
  8
trigger3
  0
POLYLINE
  8
trigger3
 62
1
 40
0.001000
 41
0.001000
 66
  1
 70
  0
  0
VERTEX
  8
trigger3
 10
-0.286000
 20
3.265000
  0
VERTEX
  8
trigger3
 10
-0.286000
 20
3.265000
  0
VERTEX
  8
trigger3
 10
-0.286000
 20
3.265000
 42
0.398481
  0
VERTEX
  8
trigger3
 10
-0.205000
 20
3.193000
  0
VERTEX
  8
trigger3
 10
-0.205000
 20
3.193000
  0
SEQEND
  8
trigger3
  0
POLYLINE
  8
trigger3
 62
1
 40
0.001000
 41
0.001000
 66
  1
 70
  0
  0
VERTEX
  8
trigger3
 10
-0.078000
 20
3.199000
  0
VERTEX
  8
trigger3
 10
-0.078000
 20
3.199000
  0
VERTEX
  8
trigger3
 10
-0.078000
 20
3.199000
 42
0.012011
  0
VERTEX
  8
trigger3
 10
-0.207000
 20
3.193000
  0
VERTEX
  8
trigger3
 10
-0.207000
 20
3.193000
  0
SEQEND
  8
trigger3
  0
POLYLINE
  8
trigger3
 62
1
 40
0.001000
 41
0.001000
 66
  1
 70
  0
  0
VERTEX
  8
trigger3
 10
-0.079000
 20
3.199000
  0
VERTEX
  8
trigger3
 10
-0.079000
 20
3.199000
  0
VERTEX
  8
trigger3
 10
-0.079000
 20
3.199000
 42
0.414214
  0
VERTEX
  8
trigger3
 10
0.000000
 20
3.278000
  0
VERTEX
  8
trigger3
 10
0.000000
 20
3.278000
  0
SEQEND
  8
trigger3
  0
POLYLINE
  8
trigger3
 62
1
 40
0.001000
 41
0.001000
 66
  1
 70
  0
  0
VERTEX
  8
trigger3
 10
-0.305000
 20
3.487000
  0
VERTEX
  8
trigger3
 10
-0.305000
 20
3.487000
  0
VERTEX
  8
trigger3
 10
-0.305000
 20
3.487000
 42
0.022176
  0
VERTEX
  8
trigger3
 10
-0.608000
 20
3.447000
  0
VERTEX
  8
trigger3
 10
-0.608000
 20
3.447000
  0
SEQEND
  8
trigger3
  0
POLYLINE
  8
trigger3
 62
1
 40
0.001000
 41
0.001000
 66
  1
 70
  0
  0
VERTEX
  8
trigger3
 10
-0.906000
 20
3.381000
  0
VERTEX
  8
trigger3
 10
-0.906000
 20
3.381000
  0
VERTEX
  8
trigger3
 10
-0.906000
 20
3.381000
 42
0.022589
  0
VERTEX
  8
trigger3
 10
-1.197000
 20
3.289000
  0
VERTEX
  8
trigger3
 10
-1.197000
 20
3.289000
  0
SEQEND
  8
trigger3
  0
POLYLINE
  8
trigger3
 62
1
 40
0.001000
 41
0.001000
 66
  1
 70
  0
  0
VERTEX
  8
trigger3
 10
-0.633000
 20
3.137000
  0
VERTEX
  8
trigger3
 10
-0.633000
 20
3.137000
  0
VERTEX
  8
trigger3
 10
-0.633000
 20
3.137000
 42
0.412105
  0
VERTEX
  8
trigger3
 10
-0.569000
 20
3.228000
  0
VERTEX
  8
trigger3
 10
-0.569000
 20
3.228000
  0
SEQEND
  8
trigger3
  0
POLYLINE
  8
trigger3
 62
1
 40
0.001000
 41
0.001000
 66
  1
 70
  0
  0
VERTEX
  8
trigger3
 10
-0.633000
 20
3.137000
  0
VERTEX
  8
trigger3
 10
-0.633000
 20
3.137000
  0
VERTEX
  8
trigger3
 10
-0.633000
 20
3.137000
 42
0.011244
  0
VERTEX
  8
trigger3
 10
-0.758000
 20
3.109000
  0
VERTEX
  8
trigger3
 10
-0.758000
 20
3.109000
  0
SEQEND
  8
trigger3
  0
POLYLINE
  8
trigger3
 62
1
 40
0.001000
 41
0.001000
 66
  1
 70
  0
  0
VERTEX
  8
trigger3
 10
-0.848000
 20
3.166000
  0
VERTEX
  8
trigger3
 10
-0.848000
 20
3.166000
  0
VERTEX
  8
trigger3
 10
-0.848000
 20
3.166000
 42
0.398405
  0
VERTEX
  8
trigger3
 10
-0.756000
 20
3.109000
  0
VERTEX
  8
trigger3
 10
-0.756000
 20
3.109000
  0
SEQEND
  8
trigger3
  0
POLYLINE
  8
trigger3
 62
1
 40
0.001000
 41
0.001000
 66
  1
 70
  0
  0
VERTEX
  8
trigger3
 10
-1.385000
 20
2.970000
  0
VERTEX
  8
trigger3
 10
-1.385000
 20
2.970000
  0
VERTEX
  8
trigger3
 10
-1.385000
 20
2.970000
 42
0.405172
  0
VERTEX
  8
trigger3
 10
-1.284000
 20
2.930000
  0
VERTEX
  8
trigger3
 10
-1.284000
 20
2.930000
  0
SEQEND
  8
trigger3
  0
POLYLINE
  8
trigger3
 62
1
 40
0.001000
 41
0.001000
 66
  1
 70
  0
  0
VERTEX
  8
trigger3
 10
-1.168000
 20
2.979000
  0
VERTEX
  8
trigger3
 10
-1.168000
 20
2.979000
  0
VERTEX
  8
trigger3
 10
-1.168000
 20
2.979000
 42
0.009946
  0
VERTEX
  8
trigger3
 10
-1.286000
 20
2.930000
  0
VERTEX
  8
trigger3
 10
-1.286000
 20
2.930000
  0
SEQEND
  8
trigger3
  0
POLYLINE
  8
trigger3
 62
1
 40
0.001000
 41
0.001000
 66
  1
 70
  0
  0
VERTEX
  8
trigger3
 10
-1.168000
 20
2.979000
  0
VERTEX
  8
trigger3
 10
-1.168000
 20
2.979000
  0
VERTEX
  8
trigger3
 10
-1.168000
 20
2.979000
 42
0.414214
  0
VERTEX
  8
trigger3
 10
-1.121000
 20
3.080000
  0
VERTEX
  8
trigger3
 10
-1.121000
 20
3.080000
  0
SEQEND
  8
trigger3
  0
POLYLINE
  8
trigger3
 62
1
 40
0.001000
 41
0.001000
 66
  1
 70
  0
  0
VERTEX
  8
trigger3
 10
-1.479000
 20
3.172000
  0
VERTEX
  8
trigger3
 10
-1.479000
 20
3.172000
  0
VERTEX
  8
trigger3
 10
-1.479000
 20
3.172000
 42
0.021628
  0
VERTEX
  8
trigger3
 10
-1.750000
 20
3.031000
  0
VERTEX
  8
trigger3
 10
-1.750000
 20
3.031000
  0
SEQEND
  8
trigger3
  0
POLYLINE
  8
trigger3
 62
1
 40
0.001000
 41
0.001000
 66
  1
 70
  0
  0
VERTEX
  8
trigger3
 10
-2.008000
 20
2.867000
  0
VERTEX
  8
trigger3
 10
-2.008000
 20
2.867000
  0
VERTEX
  8
trigger3
 10
-2.008000
 20
2.867000
 42
0.022509
  0
VERTEX
  8
trigger3
 10
-2.250000
 20
2.681000
  0
VERTEX
  8
trigger3
 10
-2.250000
 20
2.681000
  0
SEQEND
  8
trigger3
  0
POLYLINE
  8
trigger3
 62
1
 40
0.001000
 41
0.001000
 66
  1
 70
  0
  0
VERTEX
  8
trigger3
 10
-1.668000
 20
2.731000
  0
VERTEX
  8
trigger3
 10
-1.668000
 20
2.731000
  0
VERTEX
  8
trigger3
 10
-1.668000
 20
2.731000
 42
0.404610
  0
VERTEX
  8
trigger3
 10
-1.639000
 20
2.839000
  0
VERTEX
  8
trigger3
 10
-1.639000
 20
2.839000
  0
SEQEND
  8
trigger3
  0
POLYLINE
  8
trigger3
 62
1
 40
0.001000
 41
0.001000
 66
  1
 70
  0
  0
VERTEX
  8
trigger3
 10
-1.667000
 20
2.731000
  0
VERTEX
  8
trigger3
 10
-1.667000
 20
2.731000
  0
VERTEX
  8
trigger3
 10
-1.667000
 20
2.731000
 42
0.006240
  0
VERTEX
  8
trigger3
 10
-1.776000
 20
2.662000
  0
VERTEX
  8
trigger3
 10
-1.776000
 20
2.662000
  0
SEQEND
  8
trigger3
  0
POLYLINE
  8
trigger3
 62
1
 40
0.001000
 41
0.001000
 66
  1
 70
  0
  0
VERTEX
  8
trigger3
 10
-1.880000
 20
2.685000
  0
VERTEX
  8
trigger3
 10
-1.880000
 20
2.685000
  0
VERTEX
  8
trigger3
 10
-1.880000
 20
2.685000
 42
0.402473
  0
VERTEX
  8
trigger3
 10
-1.774000
 20
2.663000
  0
VERTEX
  8
trigger3
 10
-1.774000
 20
2.663000
  0
SEQEND
  8
trigger3
  0
POLYLINE
  8
trigger3
 62
1
 40
0.001000
 41
0.001000
 66
  1
 70
  0
  0
VERTEX
  8
trigger3
 10
-2.318000
 20
2.318000
  0
VERTEX
  8
trigger3
 10
-2.318000
 20
2.318000
  0
VERTEX
  8
trigger3
 10
-2.318000
 20
2.318000
 42
0.388299
  0
VERTEX
  8
trigger3
 10
-2.209000
 20
2.314000
  0
VERTEX
  8
trigger3
 10
-2.209000
 20
2.314000
  0
SEQEND
  8
trigger3
  0
POLYLINE
  8
trigger3
 62
1
 40
0.001000
 41
0.001000
 66
  1
 70
  0
  0
VERTEX
  8
trigger3
 10
-2.116000
 20
2.400000
  0
VERTEX
  8
trigger3
 10
-2.116000
 20
2.400000
  0
VERTEX
  8
trigger3
 10
-2.116000
 20
2.400000
 42
0.008812
  0
VERTEX
  8
trigger3
 10
-2.211000
 20
2.313000
  0
VERTEX
  8
trigger3
 10
-2.211000
 20
2.313000
  0
SEQEND
  8
trigger3
  0
POLYLINE
  8
trigger3
 62
1
 40
0.001000
 41
0.001000
 66
  1
 70
  0
  0
VERTEX
  8
trigger3
 10
-2.117000
 20
2.400000
  0
VERTEX
  8
trigger3
 10
-2.117000
 20
2.400000
  0
VERTEX
  8
trigger3
 10
-2.117000
 20
2.400000
 42
0.417078
  0
VERTEX
  8
trigger3
 10
-2.107000
 20
2.511000
  0
VERTEX
  8
trigger3
 10
-2.107000
 20
2.511000
  0
SEQEND
  8
trigger3
  0
POLYLINE
  8
trigger3
 62
1
 40
0.001000
 41
0.001000
 66
  1
 70
  0
  0
VERTEX
  8
trigger3
 10
-2.475000
 20
2.475000
  0
VERTEX
  8
trigger3
 10
-2.475000
 20
2.475000
  0
VERTEX
  8
trigger3
 10
-2.475000
 20
2.475000
 42
0.022263
  0
VERTEX
  8
trigger3
 10
-2.681000
 20
2.250000
  0
VERTEX
  8
trigger3
 10
-2.681000
 20
2.250000
  0
SEQEND
  8
trigger3
  0
POLYLINE
  8
trigger3
 62
1
 40
0.001000
 41
0.001000
 66
  1
 70
  0
  0
VERTEX
  8
trigger3
 10
-2.867000
 20
2.008000
  0
VERTEX
  8
trigger3
 10
-2.867000
 20
2.008000
  0
VERTEX
  8
trigger3
 10
-2.867000
 20
2.008000
 42
0.022917
  0
VERTEX
  8
trigger3
 10
-3.031000
 20
1.750000
  0
VERTEX
  8
trigger3
 10
-3.031000
 20
1.750000
  0
SEQEND
  8
trigger3
  0
POLYLINE
  8
trigger3
 62
1
 40
0.001000
 41
0.001000
 66
  1
 70
  0
  0
VERTEX
  8
trigger3
 10
-2.501000
 20
1.996000
  0
VERTEX
  8
trigger3
 10
-2.501000
 20
1.996000
  0
VERTEX
  8
trigger3
 10
-2.501000
 20
1.996000
 42
0.418674
  0
VERTEX
  8
trigger3
 10
-2.511000
 20
2.107000
  0
VERTEX
  8
trigger3
 10
-2.511000
 20
2.107000
  0
SEQEND
  8
trigger3
  0
POLYLINE
  8
trigger3
 62
1
 40
0.001000
 41
0.001000
 66
  1
 70
  0
  0
VERTEX
  8
trigger3
 10
-2.501000
 20
1.996000
  0
VERTEX
  8
trigger3
 10
-2.501000
 20
1.996000
  0
VERTEX
  8
trigger3
 10
-2.501000
 20
1.996000
 42
0.010690
  0
VERTEX
  8
trigger3
 10
-2.579000
 20
1.894000
  0
VERTEX
  8
trigger3
 10
-2.579000
 20
1.894000
  0
SEQEND
  8
trigger3
  0
POLYLINE
  8
trigger3
 62
1
 40
0.001000
 41
0.001000
 66
  1
 70
  0
  0
VERTEX
  8
trigger3
 10
-2.685000
 20
1.880000
  0
VERTEX
  8
trigger3
 10
-2.685000
 20
1.880000
  0
VERTEX
  8
trigger3
 10
-2.685000
 20
1.880000
 42
0.396094
  0
VERTEX
  8
trigger3
 10
-2.578000
 20
1.896000
  0
VERTEX
  8
trigger3
 10
-2.578000
 20
1.896000
  0
SEQEND
  8
trigger3
  0
POLYLINE
  8
trigger3
 62
1
 40
0.001000
 41
0.001000
 66
  1
 70
  0
  0
VERTEX
  8
trigger3
 10
-2.971000
 20
1.385000
  0
VERTEX
  8
trigger3
 10
-2.971000
 20
1.385000
  0
VERTEX
  8
trigger3
 10
-2.971000
 20
1.385000
 42
0.390429
  0
VERTEX
  8
trigger3
 10
-2.868000
 20
1.419000
  0
VERTEX
  8
trigger3
 10
-2.868000
 20
1.419000
  0
SEQEND
  8
trigger3
  0
POLYLINE
  8
trigger3
 62
1
 40
0.001000
 41
0.001000
 66
  1
 70
  0
  0
VERTEX
  8
trigger3
 10
-2.810000
 20
1.532000
  0
VERTEX
  8
trigger3
 10
-2.810000
 20
1.532000
  0
VERTEX
  8
trigger3
 10
-2.810000
 20
1.532000
 42
0.011536
  0
VERTEX
  8
trigger3
 10
-2.869000
 20
1.418000
  0
VERTEX
  8
trigger3
 10
-2.869000
 20
1.418000
  0
SEQEND
  8
trigger3
  0
POLYLINE
  8
trigger3
 62
1
 40
0.001000
 41
0.001000
 66
  1
 70
  0
  0
VERTEX
  8
trigger3
 10
-2.810000
 20
1.531000
  0
VERTEX
  8
trigger3
 10
-2.810000
 20
1.531000
  0
VERTEX
  8
trigger3
 10
-2.810000
 20
1.531000
 42
0.421922
  0
VERTEX
  8
trigger3
 10
-2.839000
 20
1.639000
  0
VERTEX
  8
trigger3
 10
-2.839000
 20
1.639000
  0
SEQEND
  8
trigger3
  0
POLYLINE
  8
trigger3
 62
1
 40
0.001000
 41
0.001000
 66
  1
 70
  0
  0
VERTEX
  8
trigger3
 10
-3.172000
 20
1.479000
  0
VERTEX
  8
trigger3
 10
-3.172000
 20
1.479000
  0
VERTEX
  8
trigger3
 10
-3.172000
 20
1.479000
 42
0.021208
  0
VERTEX
  8
trigger3
 10
-3.289000
 20
1.197000
  0
VERTEX
  8
trigger3
 10
-3.289000
 20
1.197000
  0
SEQEND
  8
trigger3
  0
POLYLINE
  8
trigger3
 62
1
 40
0.001000
 41
0.001000
 66
  1
 70
  0
  0
VERTEX
  8
trigger3
 10
-3.381000
 20
0.906000
  0
VERTEX
  8
trigger3
 10
-3.381000
 20
0.906000
  0
VERTEX
  8
trigger3
 10
-3.381000
 20
0.906000
 42
0.022056
  0
VERTEX
  8
trigger3
 10
-3.447000
 20
0.608000
  0
VERTEX
  8
trigger3
 10
-3.447000
 20
0.608000
  0
SEQEND
  8
trigger3
  0
POLYLINE
  8
trigger3
 62
1
 40
0.001000
 41
0.001000
 66
  1
 70
  0
  0
VERTEX
  8
trigger3
 10
-3.033000
 20
1.020000
  0
VERTEX
  8
trigger3
 10
-3.033000
 20
1.020000
  0
VERTEX
  8
trigger3
 10
-3.033000
 20
1.020000
 42
0.414214
  0
VERTEX
  8
trigger3
 10
-3.080000
 20
1.121000
  0
VERTEX
  8
trigger3
 10
-3.080000
 20
1.121000
  0
SEQEND
  8
trigger3
  0
POLYLINE
  8
trigger3
 62
1
 40
0.001000
 41
0.001000
 66
  1
 70
  0
  0
VERTEX
  8
trigger3
 10
-3.033000
 20
1.021000
  0
VERTEX
  8
trigger3
 10
-3.033000
 20
1.021000
  0
VERTEX
  8
trigger3
 10
-3.033000
 20
1.021000
 42
0.015017
  0
VERTEX
  8
trigger3
 10
-3.071000
 20
0.898000
  0
VERTEX
  8
trigger3
 10
-3.071000
 20
0.898000
  0
SEQEND
  8
trigger3
  0
POLYLINE
  8
trigger3
 62
1
 40
0.001000
 41
0.001000
 66
  1
 70
  0
  0
VERTEX
  8
trigger3
 10
-3.166000
 20
0.848000
  0
VERTEX
  8
trigger3
 10
-3.166000
 20
0.848000
  0
VERTEX
  8
trigger3
 10
-3.166000
 20
0.848000
 42
0.389844
  0
VERTEX
  8
trigger3
 10
-3.070000
 20
0.900000
  0
VERTEX
  8
trigger3
 10
-3.070000
 20
0.900000
  0
SEQEND
  8
trigger3
  0
POLYLINE
  8
trigger3
 62
1
 40
0.001000
 41
0.001000
 66
  1
 70
  0
  0
VERTEX
  8
trigger3
 10
-3.265000
 20
0.286000
  0
VERTEX
  8
trigger3
 10
-3.265000
 20
0.286000
  0
VERTEX
  8
trigger3
 10
-3.265000
 20
0.286000
 42
0.399128
  0
VERTEX
  8
trigger3
 10
-3.180000
 20
0.353000
  0
VERTEX
  8
trigger3
 10
-3.180000
 20
0.353000
  0
SEQEND
  8
trigger3
  0
POLYLINE
  8
trigger3
 62
1
 40
0.001000
 41
0.001000
 66
  1
 70
  0
  0
VERTEX
  8
trigger3
 10
-3.164000
 20
0.479000
  0
VERTEX
  8
trigger3
 10
-3.164000
 20
0.479000
  0
VERTEX
  8
trigger3
 10
-3.164000
 20
0.479000
 42
0.008122
  0
VERTEX
  8
trigger3
 10
-3.181000
 20
0.351000
  0
VERTEX
  8
trigger3
 10
-3.181000
 20
0.351000
  0
SEQEND
  8
trigger3
  0
POLYLINE
  8
trigger3
 62
1
 40
0.001000
 41
0.001000
 66
  1
 70
  0
  0
VERTEX
  8
trigger3
 10
-3.164000
 20
0.478000
  0
VERTEX
  8
trigger3
 10
-3.164000
 20
0.478000
  0
VERTEX
  8
trigger3
 10
-3.164000
 20
0.478000
 42
0.422370
  0
VERTEX
  8
trigger3
 10
-3.228000
 20
0.569000
  0
VERTEX
  8
trigger3
 10
-3.228000
 20
0.569000
  0
SEQEND
  8
trigger3
  0
POLYLINE
  8
trigger3
 62
1
 40
0.001000
 41
0.001000
 66
  1
 70
  0
  0
VERTEX
  8
trigger3
 10
-3.487000
 20
0.305000
  0
VERTEX
  8
trigger3
 10
-3.487000
 20
0.305000
  0
VERTEX
  8
trigger3
 10
-3.487000
 20
0.305000
 42
0.022842
  0
VERTEX
  8
trigger3
 10
-3.500000
 20
0.000000
  0
VERTEX
  8
trigger3
 10
-3.500000
 20
0.000000
  0
SEQEND
  8
trigger3
  0
POLYLINE
  8
trigger3
 62
1
 40
0.001000
 41
0.001000
 66
  1
 70
  0
  0
VERTEX
  8
trigger3
 10
-3.487000
 20
-0.305000
  0
VERTEX
  8
trigger3
 10
-3.487000
 20
-0.305000
  0
VERTEX
  8
trigger3
 10
-3.487000
 20
-0.305000
 42
0.022176
  0
VERTEX
  8
trigger3
 10
-3.447000
 20
-0.608000
  0
VERTEX
  8
trigger3
 10
-3.447000
 20
-0.608000
  0
SEQEND
  8
trigger3
  0
POLYLINE
  8
trigger3
 62
1
 40
0.001000
 41
0.001000
 66
  1
 70
  0
  0
VERTEX
  8
trigger3
 10
-3.199000
 20
-0.079000
  0
VERTEX
  8
trigger3
 10
-3.199000
 20
-0.079000
  0
VERTEX
  8
trigger3
 10
-3.199000
 20
-0.079000
 42
0.414214
  0
VERTEX
  8
trigger3
 10
-3.278000
 20
0.000000
  0
VERTEX
  8
trigger3
 10
-3.278000
 20
0.000000
  0
SEQEND
  8
trigger3
  0
POLYLINE
  8
trigger3
 62
1
 40
0.001000
 41
0.001000
 66
  1
 70
  0
  0
VERTEX
  8
trigger3
 10
-3.199000
 20
-0.078000
  0
VERTEX
  8
trigger3
 10
-3.199000
 20
-0.078000
  0
VERTEX
  8
trigger3
 10
-3.199000
 20
-0.078000
 42
0.012011
  0
VERTEX
  8
trigger3
 10
-3.193000
 20
-0.207000
  0
VERTEX
  8
trigger3
 10
-3.193000
 20
-0.207000
  0
SEQEND
  8
trigger3
  0
POLYLINE
  8
trigger3
 62
1
 40
0.001000
 41
0.001000
 66
  1
 70
  0
  0
VERTEX
  8
trigger3
 10
-3.265000
 20
-0.286000
  0
VERTEX
  8
trigger3
 10
-3.265000
 20
-0.286000
  0
VERTEX
  8
trigger3
 10
-3.265000
 20
-0.286000
 42
0.398481
  0
VERTEX
  8
trigger3
 10
-3.193000
 20
-0.205000
  0
VERTEX
  8
trigger3
 10
-3.193000
 20
-0.205000
  0
SEQEND
  8
trigger3
  0
POLYLINE
  8
trigger3
 62
1
 40
0.001000
 41
0.001000
 66
  1
 70
  0
  0
VERTEX
  8
trigger3
 10
-3.166000
 20
-0.848000
  0
VERTEX
  8
trigger3
 10
-3.166000
 20
-0.848000
  0
VERTEX
  8
trigger3
 10
-3.166000
 20
-0.848000
 42
0.398405
  0
VERTEX
  8
trigger3
 10
-3.109000
 20
-0.756000
  0
VERTEX
  8
trigger3
 10
-3.109000
 20
-0.756000
  0
SEQEND
  8
trigger3
  0
POLYLINE
  8
trigger3
 62
1
 40
0.001000
 41
0.001000
 66
  1
 70
  0
  0
VERTEX
  8
trigger3
 10
-3.137000
 20
-0.633000
  0
VERTEX
  8
trigger3
 10
-3.137000
 20
-0.633000
  0
VERTEX
  8
trigger3
 10
-3.137000
 20
-0.633000
 42
0.011244
  0
VERTEX
  8
trigger3
 10
-3.109000
 20
-0.758000
  0
VERTEX
  8
trigger3
 10
-3.109000
 20
-0.758000
  0
SEQEND
  8
trigger3
  0
POLYLINE
  8
trigger3
 62
1
 40
0.001000
 41
0.001000
 66
  1
 70
  0
  0
VERTEX
  8
trigger3
 10
-3.137000
 20
-0.633000
  0
VERTEX
  8
trigger3
 10
-3.137000
 20
-0.633000
  0
VERTEX
  8
trigger3
 10
-3.137000
 20
-0.633000
 42
0.412105
  0
VERTEX
  8
trigger3
 10
-3.228000
 20
-0.569000
  0
VERTEX
  8
trigger3
 10
-3.228000
 20
-0.569000
  0
SEQEND
  8
trigger3
  0
POLYLINE
  8
trigger3
 62
1
 40
0.001000
 41
0.001000
 66
  1
 70
  0
  0
VERTEX
  8
trigger3
 10
-3.381000
 20
-0.906000
  0
VERTEX
  8
trigger3
 10
-3.381000
 20
-0.906000
  0
VERTEX
  8
trigger3
 10
-3.381000
 20
-0.906000
 42
0.022589
  0
VERTEX
  8
trigger3
 10
-3.289000
 20
-1.197000
  0
VERTEX
  8
trigger3
 10
-3.289000
 20
-1.197000
  0
SEQEND
  8
trigger3
  0
POLYLINE
  8
trigger3
 62
1
 40
0.001000
 41
0.001000
 66
  1
 70
  0
  0
VERTEX
  8
trigger3
 10
-3.172000
 20
-1.479000
  0
VERTEX
  8
trigger3
 10
-3.172000
 20
-1.479000
  0
VERTEX
  8
trigger3
 10
-3.172000
 20
-1.479000
 42
0.021628
  0
VERTEX
  8
trigger3
 10
-3.031000
 20
-1.750000
  0
VERTEX
  8
trigger3
 10
-3.031000
 20
-1.750000
  0
SEQEND
  8
trigger3
  0
POLYLINE
  8
trigger3
 62
1
 40
0.001000
 41
0.001000
 66
  1
 70
  0
  0
VERTEX
  8
trigger3
 10
-2.979000
 20
-1.168000
  0
VERTEX
  8
trigger3
 10
-2.979000
 20
-1.168000
  0
VERTEX
  8
trigger3
 10
-2.979000
 20
-1.168000
 42
0.414214
  0
VERTEX
  8
trigger3
 10
-3.080000
 20
-1.121000
  0
VERTEX
  8
trigger3
 10
-3.080000
 20
-1.121000
  0
SEQEND
  8
trigger3
  0
POLYLINE
  8
trigger3
 62
1
 40
0.001000
 41
0.001000
 66
  1
 70
  0
  0
VERTEX
  8
trigger3
 10
-2.979000
 20
-1.168000
  0
VERTEX
  8
trigger3
 10
-2.979000
 20
-1.168000
  0
VERTEX
  8
trigger3
 10
-2.979000
 20
-1.168000
 42
0.009946
  0
VERTEX
  8
trigger3
 10
-2.930000
 20
-1.286000
  0
VERTEX
  8
trigger3
 10
-2.930000
 20
-1.286000
  0
SEQEND
  8
trigger3
  0
POLYLINE
  8
trigger3
 62
1
 40
0.001000
 41
0.001000
 66
  1
 70
  0
  0
VERTEX
  8
trigger3
 10
-2.970000
 20
-1.385000
  0
VERTEX
  8
trigger3
 10
-2.970000
 20
-1.385000
  0
VERTEX
  8
trigger3
 10
-2.970000
 20
-1.385000
 42
0.405172
  0
VERTEX
  8
trigger3
 10
-2.930000
 20
-1.284000
  0
VERTEX
  8
trigger3
 10
-2.930000
 20
-1.284000
  0
SEQEND
  8
trigger3
  0
POLYLINE
  8
trigger3
 62
1
 40
0.001000
 41
0.001000
 66
  1
 70
  0
  0
VERTEX
  8
trigger3
 10
-2.685000
 20
-1.880000
  0
VERTEX
  8
trigger3
 10
-2.685000
 20
-1.880000
  0
VERTEX
  8
trigger3
 10
-2.685000
 20
-1.880000
 42
0.402473
  0
VERTEX
  8
trigger3
 10
-2.663000
 20
-1.774000
  0
VERTEX
  8
trigger3
 10
-2.663000
 20
-1.774000
  0
SEQEND
  8
trigger3
  0
POLYLINE
  8
trigger3
 62
1
 40
0.001000
 41
0.001000
 66
  1
 70
  0
  0
VERTEX
  8
trigger3
 10
-2.731000
 20
-1.667000
  0
VERTEX
  8
trigger3
 10
-2.731000
 20
-1.667000
  0
VERTEX
  8
trigger3
 10
-2.731000
 20
-1.667000
 42
0.006240
  0
VERTEX
  8
trigger3
 10
-2.662000
 20
-1.776000
  0
VERTEX
  8
trigger3
 10
-2.662000
 20
-1.776000
  0
SEQEND
  8
trigger3
  0
POLYLINE
  8
trigger3
 62
1
 40
0.001000
 41
0.001000
 66
  1
 70
  0
  0
VERTEX
  8
trigger3
 10
-2.731000
 20
-1.668000
  0
VERTEX
  8
trigger3
 10
-2.731000
 20
-1.668000
  0
VERTEX
  8
trigger3
 10
-2.731000
 20
-1.668000
 42
0.404610
  0
VERTEX
  8
trigger3
 10
-2.839000
 20
-1.639000
  0
VERTEX
  8
trigger3
 10
-2.839000
 20
-1.639000
  0
SEQEND
  8
trigger3
  0
POLYLINE
  8
trigger3
 62
1
 40
0.001000
 41
0.001000
 66
  1
 70
  0
  0
VERTEX
  8
trigger3
 10
-2.867000
 20
-2.008000
  0
VERTEX
  8
trigger3
 10
-2.867000
 20
-2.008000
  0
VERTEX
  8
trigger3
 10
-2.867000
 20
-2.008000
 42
0.022509
  0
VERTEX
  8
trigger3
 10
-2.681000
 20
-2.250000
  0
VERTEX
  8
trigger3
 10
-2.681000
 20
-2.250000
  0
SEQEND
  8
trigger3
  0
POLYLINE
  8
trigger3
 62
1
 40
0.001000
 41
0.001000
 66
  1
 70
  0
  0
VERTEX
  8
trigger3
 10
-2.475000
 20
-2.475000
  0
VERTEX
  8
trigger3
 10
-2.475000
 20
-2.475000
  0
VERTEX
  8
trigger3
 10
-2.475000
 20
-2.475000
 42
0.022263
  0
VERTEX
  8
trigger3
 10
-2.250000
 20
-2.681000
  0
VERTEX
  8
trigger3
 10
-2.250000
 20
-2.681000
  0
SEQEND
  8
trigger3
  0
POLYLINE
  8
trigger3
 62
1
 40
0.001000
 41
0.001000
 66
  1
 70
  0
  0
VERTEX
  8
trigger3
 10
-2.400000
 20
-2.117000
  0
VERTEX
  8
trigger3
 10
-2.400000
 20
-2.117000
  0
VERTEX
  8
trigger3
 10
-2.400000
 20
-2.117000
 42
0.417078
  0
VERTEX
  8
trigger3
 10
-2.511000
 20
-2.107000
  0
VERTEX
  8
trigger3
 10
-2.511000
 20
-2.107000
  0
SEQEND
  8
trigger3
  0
POLYLINE
  8
trigger3
 62
1
 40
0.001000
 41
0.001000
 66
  1
 70
  0
  0
VERTEX
  8
trigger3
 10
-2.400000
 20
-2.116000
  0
VERTEX
  8
trigger3
 10
-2.400000
 20
-2.116000
  0
VERTEX
  8
trigger3
 10
-2.400000
 20
-2.116000
 42
0.008812
  0
VERTEX
  8
trigger3
 10
-2.313000
 20
-2.211000
  0
VERTEX
  8
trigger3
 10
-2.313000
 20
-2.211000
  0
SEQEND
  8
trigger3
  0
POLYLINE
  8
trigger3
 62
1
 40
0.001000
 41
0.001000
 66
  1
 70
  0
  0
VERTEX
  8
trigger3
 10
-2.318000
 20
-2.318000
  0
VERTEX
  8
trigger3
 10
-2.318000
 20
-2.318000
  0
VERTEX
  8
trigger3
 10
-2.318000
 20
-2.318000
 42
0.388299
  0
VERTEX
  8
trigger3
 10
-2.314000
 20
-2.209000
  0
VERTEX
  8
trigger3
 10
-2.314000
 20
-2.209000
  0
SEQEND
  8
trigger3
  0
POLYLINE
  8
trigger3
 62
1
 40
0.001000
 41
0.001000
 66
  1
 70
  0
  0
VERTEX
  8
trigger3
 10
-1.880000
 20
-2.685000
  0
VERTEX
  8
trigger3
 10
-1.880000
 20
-2.685000
  0
VERTEX
  8
trigger3
 10
-1.880000
 20
-2.685000
 42
0.396094
  0
VERTEX
  8
trigger3
 10
-1.896000
 20
-2.578000
  0
VERTEX
  8
trigger3
 10
-1.896000
 20
-2.578000
  0
SEQEND
  8
trigger3
  0
POLYLINE
  8
trigger3
 62
1
 40
0.001000
 41
0.001000
 66
  1
 70
  0
  0
VERTEX
  8
trigger3
 10
-1.996000
 20
-2.501000
  0
VERTEX
  8
trigger3
 10
-1.996000
 20
-2.501000
  0
VERTEX
  8
trigger3
 10
-1.996000
 20
-2.501000
 42
0.010690
  0
VERTEX
  8
trigger3
 10
-1.894000
 20
-2.579000
  0
VERTEX
  8
trigger3
 10
-1.894000
 20
-2.579000
  0
SEQEND
  8
trigger3
  0
POLYLINE
  8
trigger3
 62
1
 40
0.001000
 41
0.001000
 66
  1
 70
  0
  0
VERTEX
  8
trigger3
 10
-1.996000
 20
-2.501000
  0
VERTEX
  8
trigger3
 10
-1.996000
 20
-2.501000
  0
VERTEX
  8
trigger3
 10
-1.996000
 20
-2.501000
 42
0.418674
  0
VERTEX
  8
trigger3
 10
-2.107000
 20
-2.511000
  0
VERTEX
  8
trigger3
 10
-2.107000
 20
-2.511000
  0
SEQEND
  8
trigger3
  0
POLYLINE
  8
trigger3
 62
1
 40
0.001000
 41
0.001000
 66
  1
 70
  0
  0
VERTEX
  8
trigger3
 10
-2.008000
 20
-2.867000
  0
VERTEX
  8
trigger3
 10
-2.008000
 20
-2.867000
  0
VERTEX
  8
trigger3
 10
-2.008000
 20
-2.867000
 42
0.022917
  0
VERTEX
  8
trigger3
 10
-1.750000
 20
-3.031000
  0
VERTEX
  8
trigger3
 10
-1.750000
 20
-3.031000
  0
SEQEND
  8
trigger3
  0
POLYLINE
  8
trigger3
 62
1
 40
0.001000
 41
0.001000
 66
  1
 70
  0
  0
VERTEX
  8
trigger3
 10
-1.479000
 20
-3.172000
  0
VERTEX
  8
trigger3
 10
-1.479000
 20
-3.172000
  0
VERTEX
  8
trigger3
 10
-1.479000
 20
-3.172000
 42
0.021208
  0
VERTEX
  8
trigger3
 10
-1.197000
 20
-3.289000
  0
VERTEX
  8
trigger3
 10
-1.197000
 20
-3.289000
  0
SEQEND
  8
trigger3
  0
POLYLINE
  8
trigger3
 62
1
 40
0.001000
 41
0.001000
 66
  1
 70
  0
  0
VERTEX
  8
trigger3
 10
-1.531000
 20
-2.810000
  0
VERTEX
  8
trigger3
 10
-1.531000
 20
-2.810000
  0
VERTEX
  8
trigger3
 10
-1.531000
 20
-2.810000
 42
0.421922
  0
VERTEX
  8
trigger3
 10
-1.639000
 20
-2.839000
  0
VERTEX
  8
trigger3
 10
-1.639000
 20
-2.839000
  0
SEQEND
  8
trigger3
  0
POLYLINE
  8
trigger3
 62
1
 40
0.001000
 41
0.001000
 66
  1
 70
  0
  0
VERTEX
  8
trigger3
 10
-1.532000
 20
-2.810000
  0
VERTEX
  8
trigger3
 10
-1.532000
 20
-2.810000
  0
VERTEX
  8
trigger3
 10
-1.532000
 20
-2.810000
 42
0.011536
  0
VERTEX
  8
trigger3
 10
-1.418000
 20
-2.869000
  0
VERTEX
  8
trigger3
 10
-1.418000
 20
-2.869000
  0
SEQEND
  8
trigger3
  0
POLYLINE
  8
trigger3
 62
1
 40
0.001000
 41
0.001000
 66
  1
 70
  0
  0
VERTEX
  8
trigger3
 10
-1.385000
 20
-2.971000
  0
VERTEX
  8
trigger3
 10
-1.385000
 20
-2.971000
  0
VERTEX
  8
trigger3
 10
-1.385000
 20
-2.971000
 42
0.390429
  0
VERTEX
  8
trigger3
 10
-1.419000
 20
-2.868000
  0
VERTEX
  8
trigger3
 10
-1.419000
 20
-2.868000
  0
SEQEND
  8
trigger3
  0
POLYLINE
  8
trigger3
 62
1
 40
0.001000
 41
0.001000
 66
  1
 70
  0
  0
VERTEX
  8
trigger3
 10
-0.848000
 20
-3.166000
  0
VERTEX
  8
trigger3
 10
-0.848000
 20
-3.166000
  0
VERTEX
  8
trigger3
 10
-0.848000
 20
-3.166000
 42
0.389844
  0
VERTEX
  8
trigger3
 10
-0.900000
 20
-3.070000
  0
VERTEX
  8
trigger3
 10
-0.900000
 20
-3.070000
  0
SEQEND
  8
trigger3
  0
POLYLINE
  8
trigger3
 62
1
 40
0.001000
 41
0.001000
 66
  1
 70
  0
  0
VERTEX
  8
trigger3
 10
-1.021000
 20
-3.033000
  0
VERTEX
  8
trigger3
 10
-1.021000
 20
-3.033000
  0
VERTEX
  8
trigger3
 10
-1.021000
 20
-3.033000
 42
0.015017
  0
VERTEX
  8
trigger3
 10
-0.898000
 20
-3.071000
  0
VERTEX
  8
trigger3
 10
-0.898000
 20
-3.071000
  0
SEQEND
  8
trigger3
  0
POLYLINE
  8
trigger3
 62
1
 40
0.001000
 41
0.001000
 66
  1
 70
  0
  0
VERTEX
  8
trigger3
 10
-1.020000
 20
-3.033000
  0
VERTEX
  8
trigger3
 10
-1.020000
 20
-3.033000
  0
VERTEX
  8
trigger3
 10
-1.020000
 20
-3.033000
 42
0.414214
  0
VERTEX
  8
trigger3
 10
-1.121000
 20
-3.080000
  0
VERTEX
  8
trigger3
 10
-1.121000
 20
-3.080000
  0
SEQEND
  8
trigger3
  0
POLYLINE
  8
trigger3
 62
1
 40
0.001000
 41
0.001000
 66
  1
 70
  0
  0
VERTEX
  8
trigger3
 10
-0.906000
 20
-3.381000
  0
VERTEX
  8
trigger3
 10
-0.906000
 20
-3.381000
  0
VERTEX
  8
trigger3
 10
-0.906000
 20
-3.381000
 42
0.022056
  0
VERTEX
  8
trigger3
 10
-0.608000
 20
-3.447000
  0
VERTEX
  8
trigger3
 10
-0.608000
 20
-3.447000
  0
SEQEND
  8
trigger3
  0
POLYLINE
  8
trigger3
 62
1
 40
0.001000
 41
0.001000
 66
  1
 70
  0
  0
VERTEX
  8
trigger3
 10
-0.305000
 20
-3.487000
  0
VERTEX
  8
trigger3
 10
-0.305000
 20
-3.487000
  0
VERTEX
  8
trigger3
 10
-0.305000
 20
-3.487000
 42
0.022842
  0
VERTEX
  8
trigger3
 10
0.000000
 20
-3.500000
  0
VERTEX
  8
trigger3
 10
0.000000
 20
-3.500000
  0
SEQEND
  8
trigger3
  0
POLYLINE
  8
trigger3
 62
1
 40
0.001000
 41
0.001000
 66
  1
 70
  0
  0
VERTEX
  8
trigger3
 10
-0.478000
 20
-3.164000
  0
VERTEX
  8
trigger3
 10
-0.478000
 20
-3.164000
  0
VERTEX
  8
trigger3
 10
-0.478000
 20
-3.164000
 42
0.422370
  0
VERTEX
  8
trigger3
 10
-0.569000
 20
-3.228000
  0
VERTEX
  8
trigger3
 10
-0.569000
 20
-3.228000
  0
SEQEND
  8
trigger3
  0
POLYLINE
  8
trigger3
 62
1
 40
0.001000
 41
0.001000
 66
  1
 70
  0
  0
VERTEX
  8
trigger3
 10
-0.479000
 20
-3.164000
  0
VERTEX
  8
trigger3
 10
-0.479000
 20
-3.164000
  0
VERTEX
  8
trigger3
 10
-0.479000
 20
-3.164000
 42
0.008122
  0
VERTEX
  8
trigger3
 10
-0.351000
 20
-3.181000
  0
VERTEX
  8
trigger3
 10
-0.351000
 20
-3.181000
  0
SEQEND
  8
trigger3
  0
POLYLINE
  8
trigger3
 62
1
 40
0.001000
 41
0.001000
 66
  1
 70
  0
  0
VERTEX
  8
trigger3
 10
-0.286000
 20
-3.265000
  0
VERTEX
  8
trigger3
 10
-0.286000
 20
-3.265000
  0
VERTEX
  8
trigger3
 10
-0.286000
 20
-3.265000
 42
0.399128
  0
VERTEX
  8
trigger3
 10
-0.353000
 20
-3.180000
  0
VERTEX
  8
trigger3
 10
-0.353000
 20
-3.180000
  0
SEQEND
  8
trigger3
  0
POLYLINE
  8
trigger3
 62
1
 40
0.001000
 41
0.001000
 66
  1
 70
  0
  0
VERTEX
  8
trigger3
 10
0.286000
 20
-3.265000
  0
VERTEX
  8
trigger3
 10
0.286000
 20
-3.265000
  0
VERTEX
  8
trigger3
 10
0.286000
 20
-3.265000
 42
0.398481
  0
VERTEX
  8
trigger3
 10
0.205000
 20
-3.193000
  0
VERTEX
  8
trigger3
 10
0.205000
 20
-3.193000
  0
SEQEND
  8
trigger3
  0
POLYLINE
  8
trigger3
 62
1
 40
0.001000
 41
0.001000
 66
  1
 70
  0
  0
VERTEX
  8
trigger3
 10
0.078000
 20
-3.199000
  0
VERTEX
  8
trigger3
 10
0.078000
 20
-3.199000
  0
VERTEX
  8
trigger3
 10
0.078000
 20
-3.199000
 42
0.012011
  0
VERTEX
  8
trigger3
 10
0.207000
 20
-3.193000
  0
VERTEX
  8
trigger3
 10
0.207000
 20
-3.193000
  0
SEQEND
  8
trigger3
  0
POLYLINE
  8
trigger3
 62
1
 40
0.001000
 41
0.001000
 66
  1
 70
  0
  0
VERTEX
  8
trigger3
 10
0.079000
 20
-3.199000
  0
VERTEX
  8
trigger3
 10
0.079000
 20
-3.199000
  0
VERTEX
  8
trigger3
 10
0.079000
 20
-3.199000
 42
0.414214
  0
VERTEX
  8
trigger3
 10
0.000000
 20
-3.278000
  0
VERTEX
  8
trigger3
 10
0.000000
 20
-3.278000
  0
SEQEND
  8
trigger3
  0
POLYLINE
  8
trigger3
 62
1
 40
0.001000
 41
0.001000
 66
  1
 70
  0
  0
VERTEX
  8
trigger3
 10
0.305000
 20
-3.487000
  0
VERTEX
  8
trigger3
 10
0.305000
 20
-3.487000
  0
VERTEX
  8
trigger3
 10
0.305000
 20
-3.487000
 42
0.022176
  0
VERTEX
  8
trigger3
 10
0.608000
 20
-3.447000
  0
VERTEX
  8
trigger3
 10
0.608000
 20
-3.447000
  0
SEQEND
  8
trigger3
  0
POLYLINE
  8
trigger3
 62
1
 40
0.001000
 41
0.001000
 66
  1
 70
  0
  0
VERTEX
  8
trigger3
 10
0.906000
 20
-3.381000
  0
VERTEX
  8
trigger3
 10
0.906000
 20
-3.381000
  0
VERTEX
  8
trigger3
 10
0.906000
 20
-3.381000
 42
0.022589
  0
VERTEX
  8
trigger3
 10
1.197000
 20
-3.289000
  0
VERTEX
  8
trigger3
 10
1.197000
 20
-3.289000
  0
SEQEND
  8
trigger3
  0
POLYLINE
  8
trigger3
 62
1
 40
0.001000
 41
0.001000
 66
  1
 70
  0
  0
VERTEX
  8
trigger3
 10
0.633000
 20
-3.137000
  0
VERTEX
  8
trigger3
 10
0.633000
 20
-3.137000
  0
VERTEX
  8
trigger3
 10
0.633000
 20
-3.137000
 42
0.412105
  0
VERTEX
  8
trigger3
 10
0.569000
 20
-3.228000
  0
VERTEX
  8
trigger3
 10
0.569000
 20
-3.228000
  0
SEQEND
  8
trigger3
  0
POLYLINE
  8
trigger3
 62
1
 40
0.001000
 41
0.001000
 66
  1
 70
  0
  0
VERTEX
  8
trigger3
 10
0.633000
 20
-3.137000
  0
VERTEX
  8
trigger3
 10
0.633000
 20
-3.137000
  0
VERTEX
  8
trigger3
 10
0.633000
 20
-3.137000
 42
0.011244
  0
VERTEX
  8
trigger3
 10
0.758000
 20
-3.109000
  0
VERTEX
  8
trigger3
 10
0.758000
 20
-3.109000
  0
SEQEND
  8
trigger3
  0
POLYLINE
  8
trigger3
 62
1
 40
0.001000
 41
0.001000
 66
  1
 70
  0
  0
VERTEX
  8
trigger3
 10
0.848000
 20
-3.166000
  0
VERTEX
  8
trigger3
 10
0.848000
 20
-3.166000
  0
VERTEX
  8
trigger3
 10
0.848000
 20
-3.166000
 42
0.398405
  0
VERTEX
  8
trigger3
 10
0.756000
 20
-3.109000
  0
VERTEX
  8
trigger3
 10
0.756000
 20
-3.109000
  0
SEQEND
  8
trigger3
  0
POLYLINE
  8
trigger3
 62
1
 40
0.001000
 41
0.001000
 66
  1
 70
  0
  0
VERTEX
  8
trigger3
 10
1.385000
 20
-2.970000
  0
VERTEX
  8
trigger3
 10
1.385000
 20
-2.970000
  0
VERTEX
  8
trigger3
 10
1.385000
 20
-2.970000
 42
0.405172
  0
VERTEX
  8
trigger3
 10
1.284000
 20
-2.930000
  0
VERTEX
  8
trigger3
 10
1.284000
 20
-2.930000
  0
SEQEND
  8
trigger3
  0
POLYLINE
  8
trigger3
 62
1
 40
0.001000
 41
0.001000
 66
  1
 70
  0
  0
VERTEX
  8
trigger3
 10
1.168000
 20
-2.979000
  0
VERTEX
  8
trigger3
 10
1.168000
 20
-2.979000
  0
VERTEX
  8
trigger3
 10
1.168000
 20
-2.979000
 42
0.009946
  0
VERTEX
  8
trigger3
 10
1.286000
 20
-2.930000
  0
VERTEX
  8
trigger3
 10
1.286000
 20
-2.930000
  0
SEQEND
  8
trigger3
  0
POLYLINE
  8
trigger3
 62
1
 40
0.001000
 41
0.001000
 66
  1
 70
  0
  0
VERTEX
  8
trigger3
 10
1.168000
 20
-2.979000
  0
VERTEX
  8
trigger3
 10
1.168000
 20
-2.979000
  0
VERTEX
  8
trigger3
 10
1.168000
 20
-2.979000
 42
0.414214
  0
VERTEX
  8
trigger3
 10
1.121000
 20
-3.080000
  0
VERTEX
  8
trigger3
 10
1.121000
 20
-3.080000
  0
SEQEND
  8
trigger3
  0
POLYLINE
  8
trigger3
 62
1
 40
0.001000
 41
0.001000
 66
  1
 70
  0
  0
VERTEX
  8
trigger3
 10
1.479000
 20
-3.172000
  0
VERTEX
  8
trigger3
 10
1.479000
 20
-3.172000
  0
VERTEX
  8
trigger3
 10
1.479000
 20
-3.172000
 42
0.021628
  0
VERTEX
  8
trigger3
 10
1.750000
 20
-3.031000
  0
VERTEX
  8
trigger3
 10
1.750000
 20
-3.031000
  0
SEQEND
  8
trigger3
  0
POLYLINE
  8
trigger3
 62
1
 40
0.001000
 41
0.001000
 66
  1
 70
  0
  0
VERTEX
  8
trigger3
 10
2.008000
 20
-2.867000
  0
VERTEX
  8
trigger3
 10
2.008000
 20
-2.867000
  0
VERTEX
  8
trigger3
 10
2.008000
 20
-2.867000
 42
0.022509
  0
VERTEX
  8
trigger3
 10
2.250000
 20
-2.681000
  0
VERTEX
  8
trigger3
 10
2.250000
 20
-2.681000
  0
SEQEND
  8
trigger3
  0
POLYLINE
  8
trigger3
 62
1
 40
0.001000
 41
0.001000
 66
  1
 70
  0
  0
VERTEX
  8
trigger3
 10
1.668000
 20
-2.731000
  0
VERTEX
  8
trigger3
 10
1.668000
 20
-2.731000
  0
VERTEX
  8
trigger3
 10
1.668000
 20
-2.731000
 42
0.404610
  0
VERTEX
  8
trigger3
 10
1.639000
 20
-2.839000
  0
VERTEX
  8
trigger3
 10
1.639000
 20
-2.839000
  0
SEQEND
  8
trigger3
  0
POLYLINE
  8
trigger3
 62
1
 40
0.001000
 41
0.001000
 66
  1
 70
  0
  0
VERTEX
  8
trigger3
 10
1.667000
 20
-2.731000
  0
VERTEX
  8
trigger3
 10
1.667000
 20
-2.731000
  0
VERTEX
  8
trigger3
 10
1.667000
 20
-2.731000
 42
0.006240
  0
VERTEX
  8
trigger3
 10
1.776000
 20
-2.662000
  0
VERTEX
  8
trigger3
 10
1.776000
 20
-2.662000
  0
SEQEND
  8
trigger3
  0
POLYLINE
  8
trigger3
 62
1
 40
0.001000
 41
0.001000
 66
  1
 70
  0
  0
VERTEX
  8
trigger3
 10
1.880000
 20
-2.685000
  0
VERTEX
  8
trigger3
 10
1.880000
 20
-2.685000
  0
VERTEX
  8
trigger3
 10
1.880000
 20
-2.685000
 42
0.402473
  0
VERTEX
  8
trigger3
 10
1.774000
 20
-2.663000
  0
VERTEX
  8
trigger3
 10
1.774000
 20
-2.663000
  0
SEQEND
  8
trigger3
  0
POLYLINE
  8
trigger3
 62
1
 40
0.001000
 41
0.001000
 66
  1
 70
  0
  0
VERTEX
  8
trigger3
 10
2.318000
 20
-2.318000
  0
VERTEX
  8
trigger3
 10
2.318000
 20
-2.318000
  0
VERTEX
  8
trigger3
 10
2.318000
 20
-2.318000
 42
0.388299
  0
VERTEX
  8
trigger3
 10
2.209000
 20
-2.314000
  0
VERTEX
  8
trigger3
 10
2.209000
 20
-2.314000
  0
SEQEND
  8
trigger3
  0
POLYLINE
  8
trigger3
 62
1
 40
0.001000
 41
0.001000
 66
  1
 70
  0
  0
VERTEX
  8
trigger3
 10
2.116000
 20
-2.400000
  0
VERTEX
  8
trigger3
 10
2.116000
 20
-2.400000
  0
VERTEX
  8
trigger3
 10
2.116000
 20
-2.400000
 42
0.008812
  0
VERTEX
  8
trigger3
 10
2.211000
 20
-2.313000
  0
VERTEX
  8
trigger3
 10
2.211000
 20
-2.313000
  0
SEQEND
  8
trigger3
  0
POLYLINE
  8
trigger3
 62
1
 40
0.001000
 41
0.001000
 66
  1
 70
  0
  0
VERTEX
  8
trigger3
 10
2.117000
 20
-2.400000
  0
VERTEX
  8
trigger3
 10
2.117000
 20
-2.400000
  0
VERTEX
  8
trigger3
 10
2.117000
 20
-2.400000
 42
0.417078
  0
VERTEX
  8
trigger3
 10
2.107000
 20
-2.511000
  0
VERTEX
  8
trigger3
 10
2.107000
 20
-2.511000
  0
SEQEND
  8
trigger3
  0
POLYLINE
  8
trigger3
 62
1
 40
0.001000
 41
0.001000
 66
  1
 70
  0
  0
VERTEX
  8
trigger3
 10
2.475000
 20
-2.475000
  0
VERTEX
  8
trigger3
 10
2.475000
 20
-2.475000
  0
VERTEX
  8
trigger3
 10
2.475000
 20
-2.475000
 42
0.022263
  0
VERTEX
  8
trigger3
 10
2.681000
 20
-2.250000
  0
VERTEX
  8
trigger3
 10
2.681000
 20
-2.250000
  0
SEQEND
  8
trigger3
  0
POLYLINE
  8
trigger3
 62
1
 40
0.001000
 41
0.001000
 66
  1
 70
  0
  0
VERTEX
  8
trigger3
 10
2.867000
 20
-2.008000
  0
VERTEX
  8
trigger3
 10
2.867000
 20
-2.008000
  0
VERTEX
  8
trigger3
 10
2.867000
 20
-2.008000
 42
0.022917
  0
VERTEX
  8
trigger3
 10
3.031000
 20
-1.750000
  0
VERTEX
  8
trigger3
 10
3.031000
 20
-1.750000
  0
SEQEND
  8
trigger3
  0
POLYLINE
  8
trigger3
 62
1
 40
0.001000
 41
0.001000
 66
  1
 70
  0
  0
VERTEX
  8
trigger3
 10
2.501000
 20
-1.996000
  0
VERTEX
  8
trigger3
 10
2.501000
 20
-1.996000
  0
VERTEX
  8
trigger3
 10
2.501000
 20
-1.996000
 42
0.418674
  0
VERTEX
  8
trigger3
 10
2.511000
 20
-2.107000
  0
VERTEX
  8
trigger3
 10
2.511000
 20
-2.107000
  0
SEQEND
  8
trigger3
  0
POLYLINE
  8
trigger3
 62
1
 40
0.001000
 41
0.001000
 66
  1
 70
  0
  0
VERTEX
  8
trigger3
 10
2.501000
 20
-1.996000
  0
VERTEX
  8
trigger3
 10
2.501000
 20
-1.996000
  0
VERTEX
  8
trigger3
 10
2.501000
 20
-1.996000
 42
0.010690
  0
VERTEX
  8
trigger3
 10
2.579000
 20
-1.894000
  0
VERTEX
  8
trigger3
 10
2.579000
 20
-1.894000
  0
SEQEND
  8
trigger3
  0
POLYLINE
  8
trigger3
 62
1
 40
0.001000
 41
0.001000
 66
  1
 70
  0
  0
VERTEX
  8
trigger3
 10
2.685000
 20
-1.880000
  0
VERTEX
  8
trigger3
 10
2.685000
 20
-1.880000
  0
VERTEX
  8
trigger3
 10
2.685000
 20
-1.880000
 42
0.396094
  0
VERTEX
  8
trigger3
 10
2.578000
 20
-1.896000
  0
VERTEX
  8
trigger3
 10
2.578000
 20
-1.896000
  0
SEQEND
  8
trigger3
  0
POLYLINE
  8
trigger3
 62
1
 40
0.001000
 41
0.001000
 66
  1
 70
  0
  0
VERTEX
  8
trigger3
 10
2.971000
 20
-1.385000
  0
VERTEX
  8
trigger3
 10
2.971000
 20
-1.385000
  0
VERTEX
  8
trigger3
 10
2.971000
 20
-1.385000
 42
0.390429
  0
VERTEX
  8
trigger3
 10
2.868000
 20
-1.419000
  0
VERTEX
  8
trigger3
 10
2.868000
 20
-1.419000
  0
SEQEND
  8
trigger3
  0
POLYLINE
  8
trigger3
 62
1
 40
0.001000
 41
0.001000
 66
  1
 70
  0
  0
VERTEX
  8
trigger3
 10
2.810000
 20
-1.532000
  0
VERTEX
  8
trigger3
 10
2.810000
 20
-1.532000
  0
VERTEX
  8
trigger3
 10
2.810000
 20
-1.532000
 42
0.011536
  0
VERTEX
  8
trigger3
 10
2.869000
 20
-1.418000
  0
VERTEX
  8
trigger3
 10
2.869000
 20
-1.418000
  0
SEQEND
  8
trigger3
  0
POLYLINE
  8
trigger3
 62
1
 40
0.001000
 41
0.001000
 66
  1
 70
  0
  0
VERTEX
  8
trigger3
 10
2.810000
 20
-1.531000
  0
VERTEX
  8
trigger3
 10
2.810000
 20
-1.531000
  0
VERTEX
  8
trigger3
 10
2.810000
 20
-1.531000
 42
0.421922
  0
VERTEX
  8
trigger3
 10
2.839000
 20
-1.639000
  0
VERTEX
  8
trigger3
 10
2.839000
 20
-1.639000
  0
SEQEND
  8
trigger3
  0
POLYLINE
  8
trigger3
 62
1
 40
0.001000
 41
0.001000
 66
  1
 70
  0
  0
VERTEX
  8
trigger3
 10
3.172000
 20
-1.479000
  0
VERTEX
  8
trigger3
 10
3.172000
 20
-1.479000
  0
VERTEX
  8
trigger3
 10
3.172000
 20
-1.479000
 42
0.021208
  0
VERTEX
  8
trigger3
 10
3.289000
 20
-1.197000
  0
VERTEX
  8
trigger3
 10
3.289000
 20
-1.197000
  0
SEQEND
  8
trigger3
  0
POLYLINE
  8
trigger3
 62
1
 40
0.001000
 41
0.001000
 66
  1
 70
  0
  0
VERTEX
  8
trigger3
 10
3.381000
 20
-0.906000
  0
VERTEX
  8
trigger3
 10
3.381000
 20
-0.906000
  0
VERTEX
  8
trigger3
 10
3.381000
 20
-0.906000
 42
0.022056
  0
VERTEX
  8
trigger3
 10
3.447000
 20
-0.608000
  0
VERTEX
  8
trigger3
 10
3.447000
 20
-0.608000
  0
SEQEND
  8
trigger3
  0
POLYLINE
  8
trigger3
 62
1
 40
0.001000
 41
0.001000
 66
  1
 70
  0
  0
VERTEX
  8
trigger3
 10
3.033000
 20
-1.020000
  0
VERTEX
  8
trigger3
 10
3.033000
 20
-1.020000
  0
VERTEX
  8
trigger3
 10
3.033000
 20
-1.020000
 42
0.414214
  0
VERTEX
  8
trigger3
 10
3.080000
 20
-1.121000
  0
VERTEX
  8
trigger3
 10
3.080000
 20
-1.121000
  0
SEQEND
  8
trigger3
  0
POLYLINE
  8
trigger3
 62
1
 40
0.001000
 41
0.001000
 66
  1
 70
  0
  0
VERTEX
  8
trigger3
 10
3.033000
 20
-1.021000
  0
VERTEX
  8
trigger3
 10
3.033000
 20
-1.021000
  0
VERTEX
  8
trigger3
 10
3.033000
 20
-1.021000
 42
0.015017
  0
VERTEX
  8
trigger3
 10
3.071000
 20
-0.898000
  0
VERTEX
  8
trigger3
 10
3.071000
 20
-0.898000
  0
SEQEND
  8
trigger3
  0
POLYLINE
  8
trigger3
 62
1
 40
0.001000
 41
0.001000
 66
  1
 70
  0
  0
VERTEX
  8
trigger3
 10
3.166000
 20
-0.848000
  0
VERTEX
  8
trigger3
 10
3.166000
 20
-0.848000
  0
VERTEX
  8
trigger3
 10
3.166000
 20
-0.848000
 42
0.389844
  0
VERTEX
  8
trigger3
 10
3.070000
 20
-0.900000
  0
VERTEX
  8
trigger3
 10
3.070000
 20
-0.900000
  0
SEQEND
  8
trigger3
  0
POLYLINE
  8
trigger3
 62
1
 40
0.001000
 41
0.001000
 66
  1
 70
  0
  0
VERTEX
  8
trigger3
 10
3.265000
 20
-0.286000
  0
VERTEX
  8
trigger3
 10
3.265000
 20
-0.286000
  0
VERTEX
  8
trigger3
 10
3.265000
 20
-0.286000
 42
0.399128
  0
VERTEX
  8
trigger3
 10
3.180000
 20
-0.353000
  0
VERTEX
  8
trigger3
 10
3.180000
 20
-0.353000
  0
SEQEND
  8
trigger3
  0
POLYLINE
  8
trigger3
 62
1
 40
0.001000
 41
0.001000
 66
  1
 70
  0
  0
VERTEX
  8
trigger3
 10
3.164000
 20
-0.479000
  0
VERTEX
  8
trigger3
 10
3.164000
 20
-0.479000
  0
VERTEX
  8
trigger3
 10
3.164000
 20
-0.479000
 42
0.008122
  0
VERTEX
  8
trigger3
 10
3.181000
 20
-0.351000
  0
VERTEX
  8
trigger3
 10
3.181000
 20
-0.351000
  0
SEQEND
  8
trigger3
  0
POLYLINE
  8
trigger3
 62
1
 40
0.001000
 41
0.001000
 66
  1
 70
  0
  0
VERTEX
  8
trigger3
 10
3.164000
 20
-0.478000
  0
VERTEX
  8
trigger3
 10
3.164000
 20
-0.478000
  0
VERTEX
  8
trigger3
 10
3.164000
 20
-0.478000
 42
0.422370
  0
VERTEX
  8
trigger3
 10
3.228000
 20
-0.569000
  0
VERTEX
  8
trigger3
 10
3.228000
 20
-0.569000
  0
SEQEND
  8
trigger3
  0
POLYLINE
  8
trigger3
 62
1
 40
0.001000
 41
0.001000
 66
  1
 70
  0
  0
VERTEX
  8
trigger3
 10
3.487000
 20
-0.305000
  0
VERTEX
  8
trigger3
 10
3.487000
 20
-0.305000
  0
VERTEX
  8
trigger3
 10
3.487000
 20
-0.305000
 42
0.022842
  0
VERTEX
  8
trigger3
 10
3.500000
 20
0.000000
  0
VERTEX
  8
trigger3
 10
3.500000
 20
0.000000
  0
SEQEND
  8
trigger3
  0
POLYLINE
  8
trigger3
 62
1
 40
0.001000
 41
0.001000
 66
  1
 70
  0
  0
VERTEX
  8
trigger3
 10
3.199000
 20
0.078000
  0
VERTEX
  8
trigger3
 10
3.199000
 20
0.078000
  0
VERTEX
  8
trigger3
 10
3.199000
 20
0.078000
 42
0.053570
  0
VERTEX
  8
trigger3
 10
3.109000
 20
0.758000
  0
VERTEX
  8
trigger3
 10
3.109000
 20
0.758000
  0
SEQEND
  8
trigger3
  0
POLYLINE
  8
trigger3
 62
1
 40
0.001000
 41
0.001000
 66
  1
 70
  0
  0
VERTEX
  8
trigger3
 10
3.165000
 20
0.848000
  0
VERTEX
  8
trigger3
 10
3.381000
 20
0.906000
  0
SEQEND
  8
trigger3
  0
POLYLINE
  8
trigger3
 62
1
 40
0.001000
 41
0.001000
 66
  1
 70
  0
  0
VERTEX
  8
trigger3
 10
3.080000
 20
1.121000
  0
VERTEX
  8
trigger3
 10
3.289000
 20
1.197000
  0
SEQEND
  8
trigger3
  0
POLYLINE
  8
trigger3
 62
1
 40
0.001000
 41
0.001000
 66
  1
 70
  0
  0
VERTEX
  8
trigger3
 10
2.970000
 20
1.385000
  0
VERTEX
  8
trigger3
 10
3.172000
 20
1.479000
  0
SEQEND
  8
trigger3
  0
POLYLINE
  8
trigger3
 62
1
 40
0.001000
 41
0.001000
 66
  1
 70
  0
  0
VERTEX
  8
trigger3
 10
2.684000
 20
1.880000
  0
VERTEX
  8
trigger3
 10
2.867000
 20
2.008000
  0
SEQEND
  8
trigger3
  0
POLYLINE
  8
trigger3
 62
1
 40
0.001000
 41
0.001000
 66
  1
 70
  0
  0
VERTEX
  8
trigger3
 10
2.839000
 20
1.639000
  0
VERTEX
  8
trigger3
 10
3.031000
 20
1.750000
  0
SEQEND
  8
trigger3
  0
POLYLINE
  8
trigger3
 62
1
 40
0.001000
 41
0.001000
 66
  1
 70
  0
  0
VERTEX
  8
trigger3
 10
2.511000
 20
2.107000
  0
VERTEX
  8
trigger3
 10
2.681000
 20
2.250000
  0
SEQEND
  8
trigger3
  0
POLYLINE
  8
trigger3
 62
1
 40
0.001000
 41
0.001000
 66
  1
 70
  0
  0
VERTEX
  8
trigger3
 10
2.317000
 20
2.317000
  0
VERTEX
  8
trigger3
 10
2.475000
 20
2.475000
  0
SEQEND
  8
trigger3
  0
POLYLINE
  8
trigger3
 62
1
 40
0.001000
 41
0.001000
 66
  1
 70
  0
  0
VERTEX
  8
trigger3
 10
1.879000
 20
2.684000
  0
VERTEX
  8
trigger3
 10
2.008000
 20
2.867000
  0
SEQEND
  8
trigger3
  0
POLYLINE
  8
trigger3
 62
1
 40
0.001000
 41
0.001000
 66
  1
 70
  0
  0
VERTEX
  8
trigger3
 10
2.107000
 20
2.511000
  0
VERTEX
  8
trigger3
 10
2.250000
 20
2.681000
  0
SEQEND
  8
trigger3
  0
POLYLINE
  8
trigger3
 62
1
 40
0.001000
 41
0.001000
 66
  1
 70
  0
  0
VERTEX
  8
trigger3
 10
1.639000
 20
2.839000
  0
VERTEX
  8
trigger3
 10
1.750000
 20
3.031000
  0
SEQEND
  8
trigger3
  0
POLYLINE
  8
trigger3
 62
1
 40
0.001000
 41
0.001000
 66
  1
 70
  0
  0
VERTEX
  8
trigger3
 10
1.385000
 20
2.970000
  0
VERTEX
  8
trigger3
 10
1.479000
 20
3.172000
  0
SEQEND
  8
trigger3
  0
POLYLINE
  8
trigger3
 62
1
 40
0.001000
 41
0.001000
 66
  1
 70
  0
  0
VERTEX
  8
trigger3
 10
0.848000
 20
3.165000
  0
VERTEX
  8
trigger3
 10
0.906000
 20
3.381000
  0
SEQEND
  8
trigger3
  0
POLYLINE
  8
trigger3
 62
1
 40
0.001000
 41
0.001000
 66
  1
 70
  0
  0
VERTEX
  8
trigger3
 10
1.121000
 20
3.080000
  0
VERTEX
  8
trigger3
 10
1.197000
 20
3.289000
  0
SEQEND
  8
trigger3
  0
POLYLINE
  8
trigger3
 62
1
 40
0.001000
 41
0.001000
 66
  1
 70
  0
  0
VERTEX
  8
trigger3
 10
0.569000
 20
3.228000
  0
VERTEX
  8
trigger3
 10
0.608000
 20
3.447000
  0
SEQEND
  8
trigger3
  0
POLYLINE
  8
trigger3
 62
1
 40
0.001000
 41
0.001000
 66
  1
 70
  0
  0
VERTEX
  8
trigger3
 10
0.285000
 20
3.264000
  0
VERTEX
  8
trigger3
 10
0.305000
 20
3.487000
  0
SEQEND
  8
trigger3
  0
POLYLINE
  8
trigger3
 62
1
 40
0.001000
 41
0.001000
 66
  1
 70
  0
  0
VERTEX
  8
trigger3
 10
-0.305000
 20
3.487000
  0
VERTEX
  8
trigger3
 10
-0.286000
 20
3.264000
  0
SEQEND
  8
trigger3
  0
POLYLINE
  8
trigger3
 62
1
 40
0.001000
 41
0.001000
 66
  1
 70
  0
  0
VERTEX
  8
trigger3
 10
-0.608000
 20
3.447000
  0
VERTEX
  8
trigger3
 10
-0.569000
 20
3.228000
  0
SEQEND
  8
trigger3
  0
POLYLINE
  8
trigger3
 62
1
 40
0.001000
 41
0.001000
 66
  1
 70
  0
  0
VERTEX
  8
trigger3
 10
-0.906000
 20
3.381000
  0
VERTEX
  8
trigger3
 10
-0.848000
 20
3.165000
  0
SEQEND
  8
trigger3
  0
POLYLINE
  8
trigger3
 62
1
 40
0.001000
 41
0.001000
 66
  1
 70
  0
  0
VERTEX
  8
trigger3
 10
-1.479000
 20
3.172000
  0
VERTEX
  8
trigger3
 10
-1.385000
 20
2.970000
  0
SEQEND
  8
trigger3
  0
POLYLINE
  8
trigger3
 62
1
 40
0.001000
 41
0.001000
 66
  1
 70
  0
  0
VERTEX
  8
trigger3
 10
-1.197000
 20
3.289000
  0
VERTEX
  8
trigger3
 10
-1.121000
 20
3.080000
  0
SEQEND
  8
trigger3
  0
POLYLINE
  8
trigger3
 62
1
 40
0.001000
 41
0.001000
 66
  1
 70
  0
  0
VERTEX
  8
trigger3
 10
-1.750000
 20
3.031000
  0
VERTEX
  8
trigger3
 10
-1.639000
 20
2.839000
  0
SEQEND
  8
trigger3
  0
POLYLINE
  8
trigger3
 62
1
 40
0.001000
 41
0.001000
 66
  1
 70
  0
  0
VERTEX
  8
trigger3
 10
-2.008000
 20
2.867000
  0
VERTEX
  8
trigger3
 10
-1.880000
 20
2.684000
  0
SEQEND
  8
trigger3
  0
POLYLINE
  8
trigger3
 62
1
 40
0.001000
 41
0.001000
 66
  1
 70
  0
  0
VERTEX
  8
trigger3
 10
-2.475000
 20
2.475000
  0
VERTEX
  8
trigger3
 10
-2.317000
 20
2.317000
  0
SEQEND
  8
trigger3
  0
POLYLINE
  8
trigger3
 62
1
 40
0.001000
 41
0.001000
 66
  1
 70
  0
  0
VERTEX
  8
trigger3
 10
-2.250000
 20
2.681000
  0
VERTEX
  8
trigger3
 10
-2.107000
 20
2.511000
  0
SEQEND
  8
trigger3
  0
POLYLINE
  8
trigger3
 62
1
 40
0.001000
 41
0.001000
 66
  1
 70
  0
  0
VERTEX
  8
trigger3
 10
-2.681000
 20
2.250000
  0
VERTEX
  8
trigger3
 10
-2.511000
 20
2.107000
  0
SEQEND
  8
trigger3
  0
POLYLINE
  8
trigger3
 62
1
 40
0.001000
 41
0.001000
 66
  1
 70
  0
  0
VERTEX
  8
trigger3
 10
-2.867000
 20
2.008000
  0
VERTEX
  8
trigger3
 10
-2.684000
 20
1.879000
  0
SEQEND
  8
trigger3
  0
POLYLINE
  8
trigger3
 62
1
 40
0.001000
 41
0.001000
 66
  1
 70
  0
  0
VERTEX
  8
trigger3
 10
-3.172000
 20
1.479000
  0
VERTEX
  8
trigger3
 10
-2.970000
 20
1.385000
  0
SEQEND
  8
trigger3
  0
POLYLINE
  8
trigger3
 62
1
 40
0.001000
 41
0.001000
 66
  1
 70
  0
  0
VERTEX
  8
trigger3
 10
-3.031000
 20
1.750000
  0
VERTEX
  8
trigger3
 10
-2.839000
 20
1.639000
  0
SEQEND
  8
trigger3
  0
POLYLINE
  8
trigger3
 62
1
 40
0.001000
 41
0.001000
 66
  1
 70
  0
  0
VERTEX
  8
trigger3
 10
-3.289000
 20
1.197000
  0
VERTEX
  8
trigger3
 10
-3.080000
 20
1.121000
  0
SEQEND
  8
trigger3
  0
POLYLINE
  8
trigger3
 62
1
 40
0.001000
 41
0.001000
 66
  1
 70
  0
  0
VERTEX
  8
trigger3
 10
-3.381000
 20
0.906000
  0
VERTEX
  8
trigger3
 10
-3.165000
 20
0.848000
  0
SEQEND
  8
trigger3
  0
POLYLINE
  8
trigger3
 62
1
 40
0.001000
 41
0.001000
 66
  1
 70
  0
  0
VERTEX
  8
trigger3
 10
-3.487000
 20
0.305000
  0
VERTEX
  8
trigger3
 10
-3.264000
 20
0.285000
  0
SEQEND
  8
trigger3
  0
POLYLINE
  8
trigger3
 62
1
 40
0.001000
 41
0.001000
 66
  1
 70
  0
  0
VERTEX
  8
trigger3
 10
-3.447000
 20
0.608000
  0
VERTEX
  8
trigger3
 10
-3.228000
 20
0.569000
  0
SEQEND
  8
trigger3
  0
POLYLINE
  8
trigger3
 62
1
 40
0.001000
 41
0.001000
 66
  1
 70
  0
  0
VERTEX
  8
trigger3
 10
-3.487000
 20
-0.305000
  0
VERTEX
  8
trigger3
 10
-3.264000
 20
-0.286000
  0
SEQEND
  8
trigger3
  0
POLYLINE
  8
trigger3
 62
1
 40
0.001000
 41
0.001000
 66
  1
 70
  0
  0
VERTEX
  8
trigger3
 10
-3.381000
 20
-0.906000
  0
VERTEX
  8
trigger3
 10
-3.165000
 20
-0.848000
  0
SEQEND
  8
trigger3
  0
POLYLINE
  8
trigger3
 62
1
 40
0.001000
 41
0.001000
 66
  1
 70
  0
  0
VERTEX
  8
trigger3
 10
-3.447000
 20
-0.608000
  0
VERTEX
  8
trigger3
 10
-3.228000
 20
-0.569000
  0
SEQEND
  8
trigger3
  0
POLYLINE
  8
trigger3
 62
1
 40
0.001000
 41
0.001000
 66
  1
 70
  0
  0
VERTEX
  8
trigger3
 10
-3.289000
 20
-1.197000
  0
VERTEX
  8
trigger3
 10
-3.080000
 20
-1.121000
  0
SEQEND
  8
trigger3
  0
POLYLINE
  8
trigger3
 62
1
 40
0.001000
 41
0.001000
 66
  1
 70
  0
  0
VERTEX
  8
trigger3
 10
-3.172000
 20
-1.479000
  0
VERTEX
  8
trigger3
 10
-2.970000
 20
-1.385000
  0
SEQEND
  8
trigger3
  0
POLYLINE
  8
trigger3
 62
1
 40
0.001000
 41
0.001000
 66
  1
 70
  0
  0
VERTEX
  8
trigger3
 10
-2.867000
 20
-2.008000
  0
VERTEX
  8
trigger3
 10
-2.684000
 20
-1.880000
  0
SEQEND
  8
trigger3
  0
POLYLINE
  8
trigger3
 62
1
 40
0.001000
 41
0.001000
 66
  1
 70
  0
  0
VERTEX
  8
trigger3
 10
-3.031000
 20
-1.750000
  0
VERTEX
  8
trigger3
 10
-2.839000
 20
-1.639000
  0
SEQEND
  8
trigger3
  0
POLYLINE
  8
trigger3
 62
1
 40
0.001000
 41
0.001000
 66
  1
 70
  0
  0
VERTEX
  8
trigger3
 10
-2.681000
 20
-2.250000
  0
VERTEX
  8
trigger3
 10
-2.511000
 20
-2.107000
  0
SEQEND
  8
trigger3
  0
POLYLINE
  8
trigger3
 62
1
 40
0.001000
 41
0.001000
 66
  1
 70
  0
  0
VERTEX
  8
trigger3
 10
-2.475000
 20
-2.475000
  0
VERTEX
  8
trigger3
 10
-2.317000
 20
-2.317000
  0
SEQEND
  8
trigger3
  0
POLYLINE
  8
trigger3
 62
1
 40
0.001000
 41
0.001000
 66
  1
 70
  0
  0
VERTEX
  8
trigger3
 10
-2.008000
 20
-2.867000
  0
VERTEX
  8
trigger3
 10
-1.879000
 20
-2.684000
  0
SEQEND
  8
trigger3
  0
POLYLINE
  8
trigger3
 62
1
 40
0.001000
 41
0.001000
 66
  1
 70
  0
  0
VERTEX
  8
trigger3
 10
-2.250000
 20
-2.681000
  0
VERTEX
  8
trigger3
 10
-2.107000
 20
-2.511000
  0
SEQEND
  8
trigger3
  0
POLYLINE
  8
trigger3
 62
1
 40
0.001000
 41
0.001000
 66
  1
 70
  0
  0
VERTEX
  8
trigger3
 10
-1.750000
 20
-3.031000
  0
VERTEX
  8
trigger3
 10
-1.639000
 20
-2.839000
  0
SEQEND
  8
trigger3
  0
POLYLINE
  8
trigger3
 62
1
 40
0.001000
 41
0.001000
 66
  1
 70
  0
  0
VERTEX
  8
trigger3
 10
-1.479000
 20
-3.172000
  0
VERTEX
  8
trigger3
 10
-1.385000
 20
-2.970000
  0
SEQEND
  8
trigger3
  0
POLYLINE
  8
trigger3
 62
1
 40
0.001000
 41
0.001000
 66
  1
 70
  0
  0
VERTEX
  8
trigger3
 10
-0.906000
 20
-3.381000
  0
VERTEX
  8
trigger3
 10
-0.848000
 20
-3.165000
  0
SEQEND
  8
trigger3
  0
POLYLINE
  8
trigger3
 62
1
 40
0.001000
 41
0.001000
 66
  1
 70
  0
  0
VERTEX
  8
trigger3
 10
-1.197000
 20
-3.289000
  0
VERTEX
  8
trigger3
 10
-1.121000
 20
-3.080000
  0
SEQEND
  8
trigger3
  0
POLYLINE
  8
trigger3
 62
1
 40
0.001000
 41
0.001000
 66
  1
 70
  0
  0
VERTEX
  8
trigger3
 10
-0.608000
 20
-3.447000
  0
VERTEX
  8
trigger3
 10
-0.569000
 20
-3.228000
  0
SEQEND
  8
trigger3
  0
POLYLINE
  8
trigger3
 62
1
 40
0.001000
 41
0.001000
 66
  1
 70
  0
  0
VERTEX
  8
trigger3
 10
-0.305000
 20
-3.487000
  0
VERTEX
  8
trigger3
 10
-0.285000
 20
-3.264000
  0
SEQEND
  8
trigger3
  0
POLYLINE
  8
trigger3
 62
1
 40
0.001000
 41
0.001000
 66
  1
 70
  0
  0
VERTEX
  8
trigger3
 10
0.286000
 20
-3.264000
  0
VERTEX
  8
trigger3
 10
0.305000
 20
-3.487000
  0
SEQEND
  8
trigger3
  0
POLYLINE
  8
trigger3
 62
1
 40
0.001000
 41
0.001000
 66
  1
 70
  0
  0
VERTEX
  8
trigger3
 10
0.569000
 20
-3.228000
  0
VERTEX
  8
trigger3
 10
0.608000
 20
-3.447000
  0
SEQEND
  8
trigger3
  0
POLYLINE
  8
trigger3
 62
1
 40
0.001000
 41
0.001000
 66
  1
 70
  0
  0
VERTEX
  8
trigger3
 10
0.848000
 20
-3.165000
  0
VERTEX
  8
trigger3
 10
0.906000
 20
-3.381000
  0
SEQEND
  8
trigger3
  0
POLYLINE
  8
trigger3
 62
1
 40
0.001000
 41
0.001000
 66
  1
 70
  0
  0
VERTEX
  8
trigger3
 10
1.385000
 20
-2.970000
  0
VERTEX
  8
trigger3
 10
1.479000
 20
-3.172000
  0
SEQEND
  8
trigger3
  0
POLYLINE
  8
trigger3
 62
1
 40
0.001000
 41
0.001000
 66
  1
 70
  0
  0
VERTEX
  8
trigger3
 10
1.121000
 20
-3.080000
  0
VERTEX
  8
trigger3
 10
1.197000
 20
-3.289000
  0
SEQEND
  8
trigger3
  0
POLYLINE
  8
trigger3
 62
1
 40
0.001000
 41
0.001000
 66
  1
 70
  0
  0
VERTEX
  8
trigger3
 10
1.639000
 20
-2.839000
  0
VERTEX
  8
trigger3
 10
1.750000
 20
-3.031000
  0
SEQEND
  8
trigger3
  0
POLYLINE
  8
trigger3
 62
1
 40
0.001000
 41
0.001000
 66
  1
 70
  0
  0
VERTEX
  8
trigger3
 10
1.880000
 20
-2.684000
  0
VERTEX
  8
trigger3
 10
2.008000
 20
-2.867000
  0
SEQEND
  8
trigger3
  0
POLYLINE
  8
trigger3
 62
1
 40
0.001000
 41
0.001000
 66
  1
 70
  0
  0
VERTEX
  8
trigger3
 10
2.317000
 20
-2.317000
  0
VERTEX
  8
trigger3
 10
2.475000
 20
-2.475000
  0
SEQEND
  8
trigger3
  0
POLYLINE
  8
trigger3
 62
1
 40
0.001000
 41
0.001000
 66
  1
 70
  0
  0
VERTEX
  8
trigger3
 10
2.107000
 20
-2.511000
  0
VERTEX
  8
trigger3
 10
2.250000
 20
-2.681000
  0
SEQEND
  8
trigger3
  0
POLYLINE
  8
trigger3
 62
1
 40
0.001000
 41
0.001000
 66
  1
 70
  0
  0
VERTEX
  8
trigger3
 10
2.511000
 20
-2.107000
  0
VERTEX
  8
trigger3
 10
2.681000
 20
-2.250000
  0
SEQEND
  8
trigger3
  0
POLYLINE
  8
trigger3
 62
1
 40
0.001000
 41
0.001000
 66
  1
 70
  0
  0
VERTEX
  8
trigger3
 10
2.684000
 20
-1.879000
  0
VERTEX
  8
trigger3
 10
2.867000
 20
-2.008000
  0
SEQEND
  8
trigger3
  0
POLYLINE
  8
trigger3
 62
1
 40
0.001000
 41
0.001000
 66
  1
 70
  0
  0
VERTEX
  8
trigger3
 10
2.970000
 20
-1.385000
  0
VERTEX
  8
trigger3
 10
3.172000
 20
-1.479000
  0
SEQEND
  8
trigger3
  0
POLYLINE
  8
trigger3
 62
1
 40
0.001000
 41
0.001000
 66
  1
 70
  0
  0
VERTEX
  8
trigger3
 10
2.839000
 20
-1.639000
  0
VERTEX
  8
trigger3
 10
3.031000
 20
-1.750000
  0
SEQEND
  8
trigger3
  0
POLYLINE
  8
trigger3
 62
1
 40
0.001000
 41
0.001000
 66
  1
 70
  0
  0
VERTEX
  8
trigger3
 10
3.080000
 20
-1.121000
  0
VERTEX
  8
trigger3
 10
3.289000
 20
-1.197000
  0
SEQEND
  8
trigger3
  0
POLYLINE
  8
trigger3
 62
1
 40
0.001000
 41
0.001000
 66
  1
 70
  0
  0
VERTEX
  8
trigger3
 10
3.165000
 20
-0.848000
  0
VERTEX
  8
trigger3
 10
3.381000
 20
-0.906000
  0
SEQEND
  8
trigger3
  0
POLYLINE
  8
trigger3
 62
1
 40
0.001000
 41
0.001000
 66
  1
 70
  0
  0
VERTEX
  8
trigger3
 10
3.264000
 20
-0.285000
  0
VERTEX
  8
trigger3
 10
3.487000
 20
-0.305000
  0
SEQEND
  8
trigger3
  0
POLYLINE
  8
trigger3
 62
1
 40
0.001000
 41
0.001000
 66
  1
 70
  0
  0
VERTEX
  8
trigger3
 10
3.228000
 20
-0.569000
  0
VERTEX
  8
trigger3
 10
3.447000
 20
-0.608000
  0
SEQEND
  8
trigger3
  0
POLYLINE
  8
trigger3
 62
1
 40
0.001000
 41
0.001000
 66
  1
 70
  0
  0
VERTEX
  8
trigger3
 10
0.000000
 20
3.278000
  0
VERTEX
  8
trigger3
 10
0.000000
 20
3.500000
  0
SEQEND
  8
trigger3
  0
POLYLINE
  8
trigger3
 62
1
 40
0.001000
 41
0.001000
 66
  1
 70
  0
  0
VERTEX
  8
trigger3
 10
0.000000
 20
-3.500000
  0
VERTEX
  8
trigger3
 10
0.000000
 20
-3.278000
  0
SEQEND
  8
trigger3
  0
POLYLINE
  8
trigger3
 62
1
 40
0.001000
 41
0.001000
 66
  1
 70
  0
  0
VERTEX
  8
trigger3
 10
3.278000
 20
0.000000
  0
VERTEX
  8
trigger3
 10
3.500000
 20
0.000000
  0
SEQEND
  8
trigger3
  0
POLYLINE
  8
trigger3
 62
1
 40
0.001000
 41
0.001000
 66
  1
 70
  0
  0
VERTEX
  8
trigger3
 10
3.278000
 20
0.000000
  0
VERTEX
  8
trigger3
 10
3.500000
 20
0.000000
  0
SEQEND
  8
trigger3
  0
POLYLINE
  8
trigger3
 62
1
 40
0.001000
 41
0.001000
 66
  1
 70
  0
  0
VERTEX
  8
trigger3
 10
-3.500000
 20
0.000000
  0
VERTEX
  8
trigger3
 10
-3.278000
 20
0.000000
  0
SEQEND
  8
trigger3
  0
POLYLINE
  8
trigger3
 62
3
 40
0.001000
 41
0.001000
 66
  1
 70
  0
  0
VERTEX
  8
trigger3
 10
3.282000
 20
1.708000
  0
VERTEX
  8
trigger3
 10
3.282000
 20
1.708000
  0
VERTEX
  8
trigger3
 10
3.282000
 20
1.708000
 42
0.044326
  0
VERTEX
  8
trigger3
 10
2.935000
 20
2.252000
  0
VERTEX
  8
trigger3
 10
2.935000
 20
2.252000
  0
SEQEND
  8
trigger3
  0
POLYLINE
  8
trigger3
 62
3
 40
0.001000
 41
0.001000
 66
  1
 70
  0
  0
VERTEX
  8
trigger3
 10
-2.415000
 20
0.000000
  0
VERTEX
  8
trigger3
 10
-2.324000
 20
0.030000
  0
SEQEND
  8
trigger3
  0
POLYLINE
  8
trigger3
 62
3
 40
0.001000
 41
0.001000
 66
  1
 70
  0
  0
VERTEX
  8
trigger3
 10
-2.415000
 20
0.000000
  0
VERTEX
  8
trigger3
 10
-2.324000
 20
-0.030000
  0
SEQEND
  8
trigger3
  0
POLYLINE
  8
trigger3
 62
3
 40
0.001000
 41
0.001000
 66
  1
 70
  0
  0
VERTEX
  8
trigger3
 10
2.324000
 20
0.030000
  0
VERTEX
  8
trigger3
 10
2.415000
 20
0.000000
  0
SEQEND
  8
trigger3
  0
POLYLINE
  8
trigger3
 62
3
 40
0.001000
 41
0.001000
 66
  1
 70
  0
  0
VERTEX
  8
trigger3
 10
2.324000
 20
-0.030000
  0
VERTEX
  8
trigger3
 10
2.415000
 20
0.000000
  0
SEQEND
  8
trigger3
  0
POLYLINE
  8
trigger3
 62
3
 40
0.001000
 41
0.001000
 66
  1
 70
  0
  0
VERTEX
  8
trigger3
 10
3.178000
 20
0.375000
  0
VERTEX
  8
trigger3
 10
3.576000
 20
0.416000
  0
SEQEND
  8
trigger3
  0
POLYLINE
  8
trigger3
 62
3
 40
0.001000
 41
0.001000
 66
  1
 70
  0
  0
VERTEX
  8
trigger3
 10
3.178000
 20
0.375000
  0
VERTEX
  8
trigger3
 10
3.265000
 20
0.414000
  0
SEQEND
  8
trigger3
  0
POLYLINE
  8
trigger3
 62
3
 40
0.001000
 41
0.001000
 66
  1
 70
  0
  0
VERTEX
  8
trigger3
 10
3.178000
 20
0.375000
  0
VERTEX
  8
trigger3
 10
3.271000
 20
0.354000
  0
SEQEND
  8
trigger3
  0
POLYLINE
  8
trigger3
 62
3
 40
0.001000
 41
0.001000
 66
  1
 70
  0
  0
VERTEX
  8
trigger3
 10
3.178000
 20
0.376000
  0
VERTEX
  8
trigger3
 10
3.178000
 20
0.374000
  0
SEQEND
  8
trigger3
  0
POLYLINE
  8
trigger3
 62
3
 40
0.001000
 41
0.001000
 66
  1
 70
  0
  0
VERTEX
  8
trigger3
 10
3.338000
 20
1.053000
  0
VERTEX
  8
trigger3
 10
3.970000
 20
1.211000
  0
SEQEND
  8
trigger3
  0
POLYLINE
  8
trigger3
 62
3
 40
0.001000
 41
0.001000
 66
  1
 70
  0
  0
VERTEX
  8
trigger3
 10
3.338000
 20
1.053000
  0
VERTEX
  8
trigger3
 10
3.419000
 20
1.104000
  0
SEQEND
  8
trigger3
  0
POLYLINE
  8
trigger3
 62
3
 40
0.001000
 41
0.001000
 66
  1
 70
  0
  0
VERTEX
  8
trigger3
 10
3.338000
 20
1.053000
  0
VERTEX
  8
trigger3
 10
3.433000
 20
1.046000
  0
SEQEND
  8
trigger3
  0
POLYLINE
  8
trigger3
 62
3
 40
0.001000
 41
0.001000
 66
  1
 70
  0
  0
VERTEX
  8
trigger3
 10
3.338000
 20
1.054000
  0
VERTEX
  8
trigger3
 10
3.338000
 20
1.052000
  0
SEQEND
  8
trigger3
  0
POLYLINE
  8
trigger3
 62
3
 40
0.001000
 41
0.001000
 66
  1
 70
  0
  0
VERTEX
  8
trigger3
 10
3.172000
 20
1.651000
  0
VERTEX
  8
trigger3
 10
3.735000
 20
1.944000
  0
SEQEND
  8
trigger3
  0
POLYLINE
  8
trigger3
 62
3
 40
0.001000
 41
0.001000
 66
  1
 70
  0
  0
VERTEX
  8
trigger3
 10
2.848000
 20
2.183000
  0
VERTEX
  8
trigger3
 10
3.341000
 20
2.561000
  0
SEQEND
  8
trigger3
  0
POLYLINE
  8
trigger3
 62
3
 40
0.001000
 41
0.001000
 66
  1
 70
  0
  0
VERTEX
  8
trigger3
 10
3.261000
 20
1.836000
  0
VERTEX
  8
trigger3
 10
3.282000
 20
1.709000
  0
SEQEND
  8
trigger3
  0
POLYLINE
  8
trigger3
 62
3
 40
0.001000
 41
0.001000
 66
  1
 70
  0
  0
VERTEX
  8
trigger3
 10
3.190000
 20
1.787000
  0
VERTEX
  8
trigger3
 10
3.282000
 20
1.709000
  0
SEQEND
  8
trigger3
  0
POLYLINE
  8
trigger3
 62
3
 40
0.001000
 41
0.001000
 66
  1
 70
  0
  0
VERTEX
  8
trigger3
 10
2.936000
 20
2.252000
  0
VERTEX
  8
trigger3
 10
2.960000
 20
2.118000
  0
SEQEND
  8
trigger3
  0
POLYLINE
  8
trigger3
 62
3
 40
0.001000
 41
0.001000
 66
  1
 70
  0
  0
VERTEX
  8
trigger3
 10
2.936000
 20
2.252000
  0
VERTEX
  8
trigger3
 10
3.050000
 20
2.189000
  0
SEQEND
  8
trigger3
  0
POLYLINE
  8
trigger3
 62
3
 40
0.001000
 41
0.001000
 66
  1
 70
  0
  0
VERTEX
  8
trigger3
 10
-2.415000
 20
-0.001000
  0
VERTEX
  8
trigger3
 10
-2.415000
 20
0.001000
  0
SEQEND
  8
trigger3
  0
POLYLINE
  8
trigger3
 62
3
 40
0.001000
 41
0.001000
 66
  1
 70
  0
  0
VERTEX
  8
trigger3
 10
2.415000
 20
-0.001000
  0
VERTEX
  8
trigger3
 10
2.415000
 20
0.001000
  0
SEQEND
  8
trigger3
  0
POLYLINE
  8
trigger3
 62
3
 40
0.001000
 41
0.001000
 66
  1
 70
  0
  0
VERTEX
  8
trigger3
 10
0.625000
 20
0.000000
  0
VERTEX
  8
trigger3
 10
2.415000
 20
0.000000
  0
SEQEND
  8
trigger3
  0
POLYLINE
  8
trigger3
 62
3
 40
0.001000
 41
0.001000
 66
  1
 70
  0
  0
VERTEX
  8
trigger3
 10
-2.415000
 20
0.000000
  0
VERTEX
  8
trigger3
 10
-0.625000
 20
0.000000
  0
SEQEND
  8
trigger3
  0
POLYLINE
  8
trigger3
 62
3
 40
0.010000
 41
0.010000
 66
  1
 70
  0
  0
VERTEX
  8
trigger3
 10
-0.503000
 20
0.038000
  0
VERTEX
  8
trigger3
 10
-0.541000
 20
-0.015000
  0
VERTEX
  8
trigger3
 10
-0.484000
 20
-0.015000
  0
SEQEND
  8
trigger3
  0
POLYLINE
  8
trigger3
 62
3
 40
0.010000
 41
0.010000
 66
  1
 70
  0
  0
VERTEX
  8
trigger3
 10
-0.503000
 20
0.038000
  0
VERTEX
  8
trigger3
 10
-0.503000
 20
-0.042000
  0
SEQEND
  8
trigger3
  0
POLYLINE
  8
trigger3
 62
3
 40
0.010000
 41
0.010000
 66
  1
 70
  1
  0
VERTEX
  8
trigger3
 10
-0.466000
 20
-0.034000
  0
VERTEX
  8
trigger3
 10
-0.470000
 20
-0.038000
  0
VERTEX
  8
trigger3
 10
-0.466000
 20
-0.042000
  0
VERTEX
  8
trigger3
 10
-0.462000
 20
-0.038000
  0
VERTEX
  8
trigger3
 10
-0.466000
 20
-0.034000
  0
SEQEND
  8
trigger3
  0
POLYLINE
  8
trigger3
 62
3
 40
0.010000
 41
0.010000
 66
  1
 70
  1
  0
VERTEX
  8
trigger3
 10
-0.426000
 20
0.038000
  0
VERTEX
  8
trigger3
 10
-0.437000
 20
0.034000
  0
VERTEX
  8
trigger3
 10
-0.441000
 20
0.027000
  0
VERTEX
  8
trigger3
 10
-0.441000
 20
0.019000
  0
VERTEX
  8
trigger3
 10
-0.437000
 20
0.011000
  0
VERTEX
  8
trigger3
 10
-0.429000
 20
0.008000
  0
VERTEX
  8
trigger3
 10
-0.414000
 20
0.004000
  0
VERTEX
  8
trigger3
 10
-0.403000
 20
0.000000
  0
VERTEX
  8
trigger3
 10
-0.395000
 20
-0.008000
  0
VERTEX
  8
trigger3
 10
-0.391000
 20
-0.015000
  0
VERTEX
  8
trigger3
 10
-0.391000
 20
-0.027000
  0
VERTEX
  8
trigger3
 10
-0.395000
 20
-0.034000
  0
VERTEX
  8
trigger3
 10
-0.399000
 20
-0.038000
  0
VERTEX
  8
trigger3
 10
-0.410000
 20
-0.042000
  0
VERTEX
  8
trigger3
 10
-0.426000
 20
-0.042000
  0
VERTEX
  8
trigger3
 10
-0.437000
 20
-0.038000
  0
VERTEX
  8
trigger3
 10
-0.441000
 20
-0.034000
  0
VERTEX
  8
trigger3
 10
-0.445000
 20
-0.027000
  0
VERTEX
  8
trigger3
 10
-0.445000
 20
-0.015000
  0
VERTEX
  8
trigger3
 10
-0.441000
 20
-0.008000
  0
VERTEX
  8
trigger3
 10
-0.433000
 20
0.000000
  0
VERTEX
  8
trigger3
 10
-0.422000
 20
0.004000
  0
VERTEX
  8
trigger3
 10
-0.407000
 20
0.008000
  0
VERTEX
  8
trigger3
 10
-0.399000
 20
0.011000
  0
VERTEX
  8
trigger3
 10
-0.395000
 20
0.019000
  0
VERTEX
  8
trigger3
 10
-0.395000
 20
0.027000
  0
VERTEX
  8
trigger3
 10
-0.399000
 20
0.034000
  0
VERTEX
  8
trigger3
 10
-0.410000
 20
0.038000
  0
VERTEX
  8
trigger3
 10
-0.426000
 20
0.038000
  0
SEQEND
  8
trigger3
  0
POLYLINE
  8
trigger3
 62
3
 40
0.010000
 41
0.010000
 66
  1
 70
  0
  0
VERTEX
  8
trigger3
 10
-0.366000
 20
0.038000
  0
VERTEX
  8
trigger3
 10
-0.324000
 20
0.038000
  0
VERTEX
  8
trigger3
 10
-0.347000
 20
0.008000
  0
VERTEX
  8
trigger3
 10
-0.335000
 20
0.008000
  0
VERTEX
  8
trigger3
 10
-0.328000
 20
0.004000
  0
VERTEX
  8
trigger3
 10
-0.324000
 20
0.000000
  0
VERTEX
  8
trigger3
 10
-0.320000
 20
-0.012000
  0
VERTEX
  8
trigger3
 10
-0.320000
 20
-0.019000
  0
VERTEX
  8
trigger3
 10
-0.324000
 20
-0.031000
  0
VERTEX
  8
trigger3
 10
-0.332000
 20
-0.038000
  0
VERTEX
  8
trigger3
 10
-0.343000
 20
-0.042000
  0
VERTEX
  8
trigger3
 10
-0.354000
 20
-0.042000
  0
VERTEX
  8
trigger3
 10
-0.366000
 20
-0.038000
  0
VERTEX
  8
trigger3
 10
-0.370000
 20
-0.034000
  0
VERTEX
  8
trigger3
 10
-0.373000
 20
-0.027000
  0
SEQEND
  8
trigger3
  0
POLYLINE
  8
trigger3
 62
3
 40
0.010000
 41
0.010000
 66
  1
 70
  1
  0
VERTEX
  8
trigger3
 10
-0.279000
 20
0.038000
  0
VERTEX
  8
trigger3
 10
-0.291000
 20
0.034000
  0
VERTEX
  8
trigger3
 10
-0.298000
 20
0.023000
  0
VERTEX
  8
trigger3
 10
-0.302000
 20
0.004000
  0
VERTEX
  8
trigger3
 10
-0.302000
 20
-0.008000
  0
VERTEX
  8
trigger3
 10
-0.298000
 20
-0.027000
  0
VERTEX
  8
trigger3
 10
-0.291000
 20
-0.038000
  0
VERTEX
  8
trigger3
 10
-0.279000
 20
-0.042000
  0
VERTEX
  8
trigger3
 10
-0.272000
 20
-0.042000
  0
VERTEX
  8
trigger3
 10
-0.260000
 20
-0.038000
  0
VERTEX
  8
trigger3
 10
-0.253000
 20
-0.027000
  0
VERTEX
  8
trigger3
 10
-0.249000
 20
-0.008000
  0
VERTEX
  8
trigger3
 10
-0.249000
 20
0.004000
  0
VERTEX
  8
trigger3
 10
-0.253000
 20
0.023000
  0
VERTEX
  8
trigger3
 10
-0.260000
 20
0.034000
  0
VERTEX
  8
trigger3
 10
-0.272000
 20
0.038000
  0
VERTEX
  8
trigger3
 10
-0.279000
 20
0.038000
  0
SEQEND
  8
trigger3
  0
POLYLINE
  8
trigger3
 62
3
 40
0.010000
 41
0.010000
 66
  1
 70
  0
  0
VERTEX
  8
trigger3
 10
-0.227000
 20
0.038000
  0
VERTEX
  8
trigger3
 10
-0.231000
 20
0.034000
  0
VERTEX
  8
trigger3
 10
-0.231000
 20
0.011000
  0
SEQEND
  8
trigger3
  0
POLYLINE
  8
trigger3
 62
3
 40
0.010000
 41
0.010000
 66
  1
 70
  0
  0
VERTEX
  8
trigger3
 10
-0.227000
 20
0.034000
  0
VERTEX
  8
trigger3
 10
-0.231000
 20
0.011000
  0
SEQEND
  8
trigger3
  0
POLYLINE
  8
trigger3
 62
3
 40
0.010000
 41
0.010000
 66
  1
 70
  0
  0
VERTEX
  8
trigger3
 10
-0.227000
 20
0.038000
  0
VERTEX
  8
trigger3
 10
-0.223000
 20
0.034000
  0
VERTEX
  8
trigger3
 10
-0.231000
 20
0.011000
  0
SEQEND
  8
trigger3
  0
POLYLINE
  8
trigger3
 62
3
 40
0.010000
 41
0.010000
 66
  1
 70
  0
  0
VERTEX
  8
trigger3
 10
-0.193000
 20
0.038000
  0
VERTEX
  8
trigger3
 10
-0.197000
 20
0.034000
  0
VERTEX
  8
trigger3
 10
-0.197000
 20
0.011000
  0
SEQEND
  8
trigger3
  0
POLYLINE
  8
trigger3
 62
3
 40
0.010000
 41
0.010000
 66
  1
 70
  0
  0
VERTEX
  8
trigger3
 10
-0.193000
 20
0.034000
  0
VERTEX
  8
trigger3
 10
-0.197000
 20
0.011000
  0
SEQEND
  8
trigger3
  0
POLYLINE
  8
trigger3
 62
3
 40
0.010000
 41
0.010000
 66
  1
 70
  0
  0
VERTEX
  8
trigger3
 10
-0.193000
 20
0.038000
  0
VERTEX
  8
trigger3
 10
-0.189000
 20
0.034000
  0
VERTEX
  8
trigger3
 10
-0.197000
 20
0.011000
  0
SEQEND
  8
trigger3
  0
POLYLINE
  8
trigger3
 62
3
 40
0.010000
 41
0.010000
 66
  1
 70
  0
  0
VERTEX
  8
trigger3
 10
-0.075000
 20
0.027000
  0
VERTEX
  8
trigger3
 10
-0.075000
 20
-0.042000
  0
SEQEND
  8
trigger3
  0
POLYLINE
  8
trigger3
 62
3
 40
0.010000
 41
0.010000
 66
  1
 70
  0
  0
VERTEX
  8
trigger3
 10
-0.109000
 20
-0.008000
  0
VERTEX
  8
trigger3
 10
-0.041000
 20
-0.008000
  0
SEQEND
  8
trigger3
  0
POLYLINE
  8
trigger3
 62
3
 40
0.010000
 41
0.010000
 66
  1
 70
  0
  0
VERTEX
  8
trigger3
 10
-0.017000
 20
-0.053000
  0
VERTEX
  8
trigger3
 10
0.036000
 20
0.038000
  0
SEQEND
  8
trigger3
  0
POLYLINE
  8
trigger3
 62
3
 40
0.010000
 41
0.010000
 66
  1
 70
  0
  0
VERTEX
  8
trigger3
 10
0.041000
 20
-0.008000
  0
VERTEX
  8
trigger3
 10
0.110000
 20
-0.008000
  0
SEQEND
  8
trigger3
  0
POLYLINE
  8
trigger3
 62
3
 40
0.010000
 41
0.010000
 66
  1
 70
  1
  0
VERTEX
  8
trigger3
 10
0.219000
 20
0.038000
  0
VERTEX
  8
trigger3
 10
0.208000
 20
0.034000
  0
VERTEX
  8
trigger3
 10
0.200000
 20
0.023000
  0
VERTEX
  8
trigger3
 10
0.196000
 20
0.004000
  0
VERTEX
  8
trigger3
 10
0.196000
 20
-0.008000
  0
VERTEX
  8
trigger3
 10
0.200000
 20
-0.027000
  0
VERTEX
  8
trigger3
 10
0.208000
 20
-0.038000
  0
VERTEX
  8
trigger3
 10
0.219000
 20
-0.042000
  0
VERTEX
  8
trigger3
 10
0.227000
 20
-0.042000
  0
VERTEX
  8
trigger3
 10
0.238000
 20
-0.038000
  0
VERTEX
  8
trigger3
 10
0.246000
 20
-0.027000
  0
VERTEX
  8
trigger3
 10
0.250000
 20
-0.008000
  0
VERTEX
  8
trigger3
 10
0.250000
 20
0.004000
  0
VERTEX
  8
trigger3
 10
0.246000
 20
0.023000
  0
VERTEX
  8
trigger3
 10
0.238000
 20
0.034000
  0
VERTEX
  8
trigger3
 10
0.227000
 20
0.038000
  0
VERTEX
  8
trigger3
 10
0.219000
 20
0.038000
  0
SEQEND
  8
trigger3
  0
POLYLINE
  8
trigger3
 62
3
 40
0.010000
 41
0.010000
 66
  1
 70
  1
  0
VERTEX
  8
trigger3
 10
0.271000
 20
-0.034000
  0
VERTEX
  8
trigger3
 10
0.268000
 20
-0.038000
  0
VERTEX
  8
trigger3
 10
0.271000
 20
-0.042000
  0
VERTEX
  8
trigger3
 10
0.275000
 20
-0.038000
  0
VERTEX
  8
trigger3
 10
0.271000
 20
-0.034000
  0
SEQEND
  8
trigger3
  0
POLYLINE
  8
trigger3
 62
3
 40
0.010000
 41
0.010000
 66
  1
 70
  1
  0
VERTEX
  8
trigger3
 10
0.316000
 20
0.038000
  0
VERTEX
  8
trigger3
 10
0.304000
 20
0.034000
  0
VERTEX
  8
trigger3
 10
0.297000
 20
0.023000
  0
VERTEX
  8
trigger3
 10
0.293000
 20
0.004000
  0
VERTEX
  8
trigger3
 10
0.293000
 20
-0.008000
  0
VERTEX
  8
trigger3
 10
0.297000
 20
-0.027000
  0
VERTEX
  8
trigger3
 10
0.304000
 20
-0.038000
  0
VERTEX
  8
trigger3
 10
0.316000
 20
-0.042000
  0
VERTEX
  8
trigger3
 10
0.323000
 20
-0.042000
  0
VERTEX
  8
trigger3
 10
0.335000
 20
-0.038000
  0
VERTEX
  8
trigger3
 10
0.342000
 20
-0.027000
  0
VERTEX
  8
trigger3
 10
0.346000
 20
-0.008000
  0
VERTEX
  8
trigger3
 10
0.346000
 20
0.004000
  0
VERTEX
  8
trigger3
 10
0.342000
 20
0.023000
  0
VERTEX
  8
trigger3
 10
0.335000
 20
0.034000
  0
VERTEX
  8
trigger3
 10
0.323000
 20
0.038000
  0
VERTEX
  8
trigger3
 10
0.316000
 20
0.038000
  0
SEQEND
  8
trigger3
  0
POLYLINE
  8
trigger3
 62
3
 40
0.010000
 41
0.010000
 66
  1
 70
  1
  0
VERTEX
  8
trigger3
 10
0.387000
 20
0.038000
  0
VERTEX
  8
trigger3
 10
0.375000
 20
0.034000
  0
VERTEX
  8
trigger3
 10
0.368000
 20
0.023000
  0
VERTEX
  8
trigger3
 10
0.364000
 20
0.004000
  0
VERTEX
  8
trigger3
 10
0.364000
 20
-0.008000
  0
VERTEX
  8
trigger3
 10
0.368000
 20
-0.027000
  0
VERTEX
  8
trigger3
 10
0.375000
 20
-0.038000
  0
VERTEX
  8
trigger3
 10
0.387000
 20
-0.042000
  0
VERTEX
  8
trigger3
 10
0.394000
 20
-0.042000
  0
VERTEX
  8
trigger3
 10
0.406000
 20
-0.038000
  0
VERTEX
  8
trigger3
 10
0.413000
 20
-0.027000
  0
VERTEX
  8
trigger3
 10
0.417000
 20
-0.008000
  0
VERTEX
  8
trigger3
 10
0.417000
 20
0.004000
  0
VERTEX
  8
trigger3
 10
0.413000
 20
0.023000
  0
VERTEX
  8
trigger3
 10
0.406000
 20
0.034000
  0
VERTEX
  8
trigger3
 10
0.394000
 20
0.038000
  0
VERTEX
  8
trigger3
 10
0.387000
 20
0.038000
  0
SEQEND
  8
trigger3
  0
POLYLINE
  8
trigger3
 62
3
 40
0.010000
 41
0.010000
 66
  1
 70
  0
  0
VERTEX
  8
trigger3
 10
0.443000
 20
0.038000
  0
VERTEX
  8
trigger3
 10
0.485000
 20
0.038000
  0
VERTEX
  8
trigger3
 10
0.462000
 20
0.008000
  0
VERTEX
  8
trigger3
 10
0.473000
 20
0.008000
  0
VERTEX
  8
trigger3
 10
0.481000
 20
0.004000
  0
VERTEX
  8
trigger3
 10
0.485000
 20
0.000000
  0
VERTEX
  8
trigger3
 10
0.488000
 20
-0.012000
  0
VERTEX
  8
trigger3
 10
0.488000
 20
-0.019000
  0
VERTEX
  8
trigger3
 10
0.485000
 20
-0.031000
  0
VERTEX
  8
trigger3
 10
0.477000
 20
-0.038000
  0
VERTEX
  8
trigger3
 10
0.466000
 20
-0.042000
  0
VERTEX
  8
trigger3
 10
0.454000
 20
-0.042000
  0
VERTEX
  8
trigger3
 10
0.443000
 20
-0.038000
  0
VERTEX
  8
trigger3
 10
0.439000
 20
-0.034000
  0
VERTEX
  8
trigger3
 10
0.435000
 20
-0.027000
  0
SEQEND
  8
trigger3
  0
POLYLINE
  8
trigger3
 62
3
 40
0.010000
 41
0.010000
 66
  1
 70
  0
  0
VERTEX
  8
trigger3
 10
0.510000
 20
0.038000
  0
VERTEX
  8
trigger3
 10
0.506000
 20
0.034000
  0
VERTEX
  8
trigger3
 10
0.506000
 20
0.011000
  0
SEQEND
  8
trigger3
  0
POLYLINE
  8
trigger3
 62
3
 40
0.010000
 41
0.010000
 66
  1
 70
  0
  0
VERTEX
  8
trigger3
 10
0.510000
 20
0.034000
  0
VERTEX
  8
trigger3
 10
0.506000
 20
0.011000
  0
SEQEND
  8
trigger3
  0
POLYLINE
  8
trigger3
 62
3
 40
0.010000
 41
0.010000
 66
  1
 70
  0
  0
VERTEX
  8
trigger3
 10
0.510000
 20
0.038000
  0
VERTEX
  8
trigger3
 10
0.514000
 20
0.034000
  0
VERTEX
  8
trigger3
 10
0.506000
 20
0.011000
  0
SEQEND
  8
trigger3
  0
POLYLINE
  8
trigger3
 62
3
 40
0.010000
 41
0.010000
 66
  1
 70
  0
  0
VERTEX
  8
trigger3
 10
0.544000
 20
0.038000
  0
VERTEX
  8
trigger3
 10
0.541000
 20
0.034000
  0
VERTEX
  8
trigger3
 10
0.541000
 20
0.011000
  0
SEQEND
  8
trigger3
  0
POLYLINE
  8
trigger3
 62
3
 40
0.010000
 41
0.010000
 66
  1
 70
  0
  0
VERTEX
  8
trigger3
 10
0.544000
 20
0.034000
  0
VERTEX
  8
trigger3
 10
0.541000
 20
0.011000
  0
SEQEND
  8
trigger3
  0
POLYLINE
  8
trigger3
 62
3
 40
0.010000
 41
0.010000
 66
  1
 70
  0
  0
VERTEX
  8
trigger3
 10
0.544000
 20
0.038000
  0
VERTEX
  8
trigger3
 10
0.548000
 20
0.034000
  0
VERTEX
  8
trigger3
 10
0.541000
 20
0.011000
  0
SEQEND
  8
trigger3
  0
POLYLINE
  8
trigger3
 62
3
 40
0.010000
 41
0.010000
 66
  1
 70
  0
  0
VERTEX
  8
trigger3
 10
3.590000
 20
0.453000
  0
VERTEX
  8
trigger3
 10
3.632000
 20
0.457000
  0
VERTEX
  8
trigger3
 10
3.612000
 20
0.424000
  0
VERTEX
  8
trigger3
 10
3.624000
 20
0.425000
  0
VERTEX
  8
trigger3
 10
3.632000
 20
0.422000
  0
VERTEX
  8
trigger3
 10
3.636000
 20
0.419000
  0
VERTEX
  8
trigger3
 10
3.641000
 20
0.408000
  0
VERTEX
  8
trigger3
 10
3.642000
 20
0.401000
  0
VERTEX
  8
trigger3
 10
3.639000
 20
0.389000
  0
VERTEX
  8
trigger3
 10
3.632000
 20
0.380000
  0
VERTEX
  8
trigger3
 10
3.621000
 20
0.375000
  0
VERTEX
  8
trigger3
 10
3.610000
 20
0.374000
  0
VERTEX
  8
trigger3
 10
3.598000
 20
0.377000
  0
VERTEX
  8
trigger3
 10
3.594000
 20
0.380000
  0
VERTEX
  8
trigger3
 10
3.589000
 20
0.387000
  0
SEQEND
  8
trigger3
  0
POLYLINE
  8
trigger3
 62
3
 40
0.010000
 41
0.010000
 66
  1
 70
  1
  0
VERTEX
  8
trigger3
 10
3.665000
 20
0.388000
  0
VERTEX
  8
trigger3
 10
3.661000
 20
0.383000
  0
VERTEX
  8
trigger3
 10
3.665000
 20
0.380000
  0
VERTEX
  8
trigger3
 10
3.669000
 20
0.384000
  0
VERTEX
  8
trigger3
 10
3.665000
 20
0.388000
  0
SEQEND
  8
trigger3
  0
POLYLINE
  8
trigger3
 62
3
 40
0.010000
 41
0.010000
 66
  1
 70
  0
  0
VERTEX
  8
trigger3
 10
3.684000
 20
0.443000
  0
VERTEX
  8
trigger3
 10
3.684000
 20
0.447000
  0
VERTEX
  8
trigger3
 10
3.687000
 20
0.455000
  0
VERTEX
  8
trigger3
 10
3.690000
 20
0.459000
  0
VERTEX
  8
trigger3
 10
3.697000
 20
0.464000
  0
VERTEX
  8
trigger3
 10
3.712000
 20
0.465000
  0
VERTEX
  8
trigger3
 10
3.720000
 20
0.462000
  0
VERTEX
  8
trigger3
 10
3.725000
 20
0.459000
  0
VERTEX
  8
trigger3
 10
3.729000
 20
0.452000
  0
VERTEX
  8
trigger3
 10
3.730000
 20
0.444000
  0
VERTEX
  8
trigger3
 10
3.727000
 20
0.436000
  0
VERTEX
  8
trigger3
 10
3.721000
 20
0.424000
  0
VERTEX
  8
trigger3
 10
3.687000
 20
0.382000
  0
VERTEX
  8
trigger3
 10
3.740000
 20
0.388000
  0
SEQEND
  8
trigger3
  0
POLYLINE
  8
trigger3
 62
3
 40
0.010000
 41
0.010000
 66
  1
 70
  1
  0
VERTEX
  8
trigger3
 10
3.772000
 20
0.472000
  0
VERTEX
  8
trigger3
 10
3.761000
 20
0.467000
  0
VERTEX
  8
trigger3
 10
3.755000
 20
0.455000
  0
VERTEX
  8
trigger3
 10
3.753000
 20
0.435000
  0
VERTEX
  8
trigger3
 10
3.754000
 20
0.424000
  0
VERTEX
  8
trigger3
 10
3.760000
 20
0.405000
  0
VERTEX
  8
trigger3
 10
3.769000
 20
0.395000
  0
VERTEX
  8
trigger3
 10
3.780000
 20
0.392000
  0
VERTEX
  8
trigger3
 10
3.788000
 20
0.393000
  0
VERTEX
  8
trigger3
 10
3.799000
 20
0.398000
  0
VERTEX
  8
trigger3
 10
3.805000
 20
0.410000
  0
VERTEX
  8
trigger3
 10
3.807000
 20
0.429000
  0
VERTEX
  8
trigger3
 10
3.806000
 20
0.441000
  0
VERTEX
  8
trigger3
 10
3.800000
 20
0.459000
  0
VERTEX
  8
trigger3
 10
3.791000
 20
0.470000
  0
VERTEX
  8
trigger3
 10
3.779000
 20
0.472000
  0
VERTEX
  8
trigger3
 10
3.772000
 20
0.472000
  0
SEQEND
  8
trigger3
  0
POLYLINE
  8
trigger3
 62
3
 40
0.010000
 41
0.010000
 66
  1
 70
  0
  0
VERTEX
  8
trigger3
 10
3.824000
 20
0.477000
  0
VERTEX
  8
trigger3
 10
3.820000
 20
0.473000
  0
VERTEX
  8
trigger3
 10
3.823000
 20
0.450000
  0
SEQEND
  8
trigger3
  0
POLYLINE
  8
trigger3
 62
3
 40
0.010000
 41
0.010000
 66
  1
 70
  0
  0
VERTEX
  8
trigger3
 10
3.824000
 20
0.473000
  0
VERTEX
  8
trigger3
 10
3.823000
 20
0.450000
  0
SEQEND
  8
trigger3
  0
POLYLINE
  8
trigger3
 62
3
 40
0.010000
 41
0.010000
 66
  1
 70
  0
  0
VERTEX
  8
trigger3
 10
3.824000
 20
0.477000
  0
VERTEX
  8
trigger3
 10
3.828000
 20
0.474000
  0
VERTEX
  8
trigger3
 10
3.823000
 20
0.450000
  0
SEQEND
  8
trigger3
  0
POLYLINE
  8
trigger3
 62
3
 40
0.010000
 41
0.010000
 66
  1
 70
  0
  0
VERTEX
  8
trigger3
 10
3.858000
 20
0.481000
  0
VERTEX
  8
trigger3
 10
3.855000
 20
0.477000
  0
VERTEX
  8
trigger3
 10
3.857000
 20
0.454000
  0
SEQEND
  8
trigger3
  0
POLYLINE
  8
trigger3
 62
3
 40
0.010000
 41
0.010000
 66
  1
 70
  0
  0
VERTEX
  8
trigger3
 10
3.858000
 20
0.477000
  0
VERTEX
  8
trigger3
 10
3.857000
 20
0.454000
  0
SEQEND
  8
trigger3
  0
POLYLINE
  8
trigger3
 62
3
 40
0.010000
 41
0.010000
 66
  1
 70
  0
  0
VERTEX
  8
trigger3
 10
3.858000
 20
0.481000
  0
VERTEX
  8
trigger3
 10
3.862000
 20
0.477000
  0
VERTEX
  8
trigger3
 10
3.857000
 20
0.454000
  0
SEQEND
  8
trigger3
  0
POLYLINE
  8
trigger3
 62
3
 40
0.010000
 41
0.010000
 66
  1
 70
  0
  0
VERTEX
  8
trigger3
 10
3.976000
 20
0.482000
  0
VERTEX
  8
trigger3
 10
3.983000
 20
0.413000
  0
SEQEND
  8
trigger3
  0
POLYLINE
  8
trigger3
 62
3
 40
0.010000
 41
0.010000
 66
  1
 70
  0
  0
VERTEX
  8
trigger3
 10
3.946000
 20
0.444000
  0
VERTEX
  8
trigger3
 10
4.014000
 20
0.451000
  0
SEQEND
  8
trigger3
  0
POLYLINE
  8
trigger3
 62
3
 40
0.010000
 41
0.010000
 66
  1
 70
  0
  0
VERTEX
  8
trigger3
 10
4.042000
 20
0.408000
  0
VERTEX
  8
trigger3
 10
4.086000
 20
0.505000
  0
SEQEND
  8
trigger3
  0
POLYLINE
  8
trigger3
 62
3
 40
0.010000
 41
0.010000
 66
  1
 70
  0
  0
VERTEX
  8
trigger3
 10
4.096000
 20
0.460000
  0
VERTEX
  8
trigger3
 10
4.164000
 20
0.467000
  0
SEQEND
  8
trigger3
  0
POLYLINE
  8
trigger3
 62
3
 40
0.010000
 41
0.010000
 66
  1
 70
  1
  0
VERTEX
  8
trigger3
 10
4.268000
 20
0.524000
  0
VERTEX
  8
trigger3
 10
4.257000
 20
0.519000
  0
VERTEX
  8
trigger3
 10
4.250000
 20
0.507000
  0
VERTEX
  8
trigger3
 10
4.249000
 20
0.487000
  0
VERTEX
  8
trigger3
 10
4.250000
 20
0.476000
  0
VERTEX
  8
trigger3
 10
4.256000
 20
0.457000
  0
VERTEX
  8
trigger3
 10
4.264000
 20
0.447000
  0
VERTEX
  8
trigger3
 10
4.276000
 20
0.444000
  0
VERTEX
  8
trigger3
 10
4.284000
 20
0.445000
  0
VERTEX
  8
trigger3
 10
4.295000
 20
0.450000
  0
VERTEX
  8
trigger3
 10
4.301000
 20
0.462000
  0
VERTEX
  8
trigger3
 10
4.303000
 20
0.482000
  0
VERTEX
  8
trigger3
 10
4.302000
 20
0.493000
  0
VERTEX
  8
trigger3
 10
4.296000
 20
0.511000
  0
VERTEX
  8
trigger3
 10
4.287000
 20
0.522000
  0
VERTEX
  8
trigger3
 10
4.275000
 20
0.525000
  0
VERTEX
  8
trigger3
 10
4.268000
 20
0.524000
  0
SEQEND
  8
trigger3
  0
POLYLINE
  8
trigger3
 62
3
 40
0.010000
 41
0.010000
 66
  1
 70
  1
  0
VERTEX
  8
trigger3
 10
4.327000
 20
0.457000
  0
VERTEX
  8
trigger3
 10
4.324000
 20
0.453000
  0
VERTEX
  8
trigger3
 10
4.328000
 20
0.450000
  0
VERTEX
  8
trigger3
 10
4.331000
 20
0.454000
  0
VERTEX
  8
trigger3
 10
4.327000
 20
0.457000
  0
SEQEND
  8
trigger3
  0
POLYLINE
  8
trigger3
 62
3
 40
0.010000
 41
0.010000
 66
  1
 70
  1
  0
VERTEX
  8
trigger3
 10
4.364000
 20
0.534000
  0
VERTEX
  8
trigger3
 10
4.353000
 20
0.529000
  0
VERTEX
  8
trigger3
 10
4.346000
 20
0.517000
  0
VERTEX
  8
trigger3
 10
4.344000
 20
0.497000
  0
VERTEX
  8
trigger3
 10
4.346000
 20
0.486000
  0
VERTEX
  8
trigger3
 10
4.351000
 20
0.468000
  0
VERTEX
  8
trigger3
 10
4.360000
 20
0.457000
  0
VERTEX
  8
trigger3
 10
4.372000
 20
0.454000
  0
VERTEX
  8
trigger3
 10
4.380000
 20
0.455000
  0
VERTEX
  8
trigger3
 10
4.390000
 20
0.460000
  0
VERTEX
  8
trigger3
 10
4.397000
 20
0.472000
  0
VERTEX
  8
trigger3
 10
4.399000
 20
0.492000
  0
VERTEX
  8
trigger3
 10
4.397000
 20
0.503000
  0
VERTEX
  8
trigger3
 10
4.392000
 20
0.522000
  0
VERTEX
  8
trigger3
 10
4.383000
 20
0.532000
  0
VERTEX
  8
trigger3
 10
4.371000
 20
0.535000
  0
VERTEX
  8
trigger3
 10
4.364000
 20
0.534000
  0
SEQEND
  8
trigger3
  0
POLYLINE
  8
trigger3
 62
3
 40
0.010000
 41
0.010000
 66
  1
 70
  0
  0
VERTEX
  8
trigger3
 10
4.417000
 20
0.520000
  0
VERTEX
  8
trigger3
 10
4.417000
 20
0.524000
  0
VERTEX
  8
trigger3
 10
4.420000
 20
0.532000
  0
VERTEX
  8
trigger3
 10
4.423000
 20
0.536000
  0
VERTEX
  8
trigger3
 10
4.431000
 20
0.541000
  0
VERTEX
  8
trigger3
 10
4.446000
 20
0.543000
  0
VERTEX
  8
trigger3
 10
4.454000
 20
0.540000
  0
VERTEX
  8
trigger3
 10
4.458000
 20
0.536000
  0
VERTEX
  8
trigger3
 10
4.463000
 20
0.529000
  0
VERTEX
  8
trigger3
 10
4.463000
 20
0.521000
  0
VERTEX
  8
trigger3
 10
4.460000
 20
0.513000
  0
VERTEX
  8
trigger3
 10
4.454000
 20
0.501000
  0
VERTEX
  8
trigger3
 10
4.420000
 20
0.459000
  0
VERTEX
  8
trigger3
 10
4.473000
 20
0.465000
  0
SEQEND
  8
trigger3
  0
POLYLINE
  8
trigger3
 62
3
 40
0.010000
 41
0.010000
 66
  1
 70
  0
  0
VERTEX
  8
trigger3
 10
4.486000
 20
0.547000
  0
VERTEX
  8
trigger3
 10
4.483000
 20
0.543000
  0
VERTEX
  8
trigger3
 10
4.485000
 20
0.520000
  0
SEQEND
  8
trigger3
  0
POLYLINE
  8
trigger3
 62
3
 40
0.010000
 41
0.010000
 66
  1
 70
  0
  0
VERTEX
  8
trigger3
 10
4.487000
 20
0.543000
  0
VERTEX
  8
trigger3
 10
4.485000
 20
0.520000
  0
SEQEND
  8
trigger3
  0
POLYLINE
  8
trigger3
 62
3
 40
0.010000
 41
0.010000
 66
  1
 70
  0
  0
VERTEX
  8
trigger3
 10
4.486000
 20
0.547000
  0
VERTEX
  8
trigger3
 10
4.490000
 20
0.543000
  0
VERTEX
  8
trigger3
 10
4.485000
 20
0.520000
  0
SEQEND
  8
trigger3
  0
POLYLINE
  8
trigger3
 62
3
 40
0.010000
 41
0.010000
 66
  1
 70
  0
  0
VERTEX
  8
trigger3
 10
4.520000
 20
0.550000
  0
VERTEX
  8
trigger3
 10
4.517000
 20
0.546000
  0
VERTEX
  8
trigger3
 10
4.519000
 20
0.523000
  0
SEQEND
  8
trigger3
  0
POLYLINE
  8
trigger3
 62
3
 40
0.010000
 41
0.010000
 66
  1
 70
  0
  0
VERTEX
  8
trigger3
 10
4.521000
 20
0.547000
  0
VERTEX
  8
trigger3
 10
4.519000
 20
0.523000
  0
SEQEND
  8
trigger3
  0
POLYLINE
  8
trigger3
 62
3
 40
0.010000
 41
0.010000
 66
  1
 70
  0
  0
VERTEX
  8
trigger3
 10
4.520000
 20
0.550000
  0
VERTEX
  8
trigger3
 10
4.525000
 20
0.547000
  0
VERTEX
  8
trigger3
 10
4.519000
 20
0.523000
  0
SEQEND
  8
trigger3
  0
POLYLINE
  8
trigger3
 62
3
 40
0.010000
 41
0.010000
 66
  1
 70
  0
  0
VERTEX
  8
trigger3
 10
3.979000
 20
1.249000
  0
VERTEX
  8
trigger3
 10
4.019000
 20
1.259000
  0
VERTEX
  8
trigger3
 10
4.005000
 20
1.224000
  0
VERTEX
  8
trigger3
 10
4.016000
 20
1.227000
  0
VERTEX
  8
trigger3
 10
4.024000
 20
1.225000
  0
VERTEX
  8
trigger3
 10
4.029000
 20
1.222000
  0
VERTEX
  8
trigger3
 10
4.035000
 20
1.212000
  0
VERTEX
  8
trigger3
 10
4.037000
 20
1.205000
  0
VERTEX
  8
trigger3
 10
4.036000
 20
1.192000
  0
VERTEX
  8
trigger3
 10
4.030000
 20
1.183000
  0
VERTEX
  8
trigger3
 10
4.020000
 20
1.177000
  0
VERTEX
  8
trigger3
 10
4.009000
 20
1.174000
  0
VERTEX
  8
trigger3
 10
3.997000
 20
1.175000
  0
VERTEX
  8
trigger3
 10
3.993000
 20
1.178000
  0
VERTEX
  8
trigger3
 10
3.987000
 20
1.184000
  0
SEQEND
  8
trigger3
  0
POLYLINE
  8
trigger3
 62
3
 40
0.010000
 41
0.010000
 66
  1
 70
  1
  0
VERTEX
  8
trigger3
 10
4.062000
 20
1.195000
  0
VERTEX
  8
trigger3
 10
4.059000
 20
1.190000
  0
VERTEX
  8
trigger3
 10
4.063000
 20
1.188000
  0
VERTEX
  8
trigger3
 10
4.066000
 20
1.192000
  0
VERTEX
  8
trigger3
 10
4.062000
 20
1.195000
  0
SEQEND
  8
trigger3
  0
POLYLINE
  8
trigger3
 62
3
 40
0.010000
 41
0.010000
 66
  1
 70
  0
  0
VERTEX
  8
trigger3
 10
4.109000
 20
1.281000
  0
VERTEX
  8
trigger3
 10
4.072000
 20
1.272000
  0
VERTEX
  8
trigger3
 10
4.077000
 20
1.238000
  0
VERTEX
  8
trigger3
 10
4.080000
 20
1.243000
  0
VERTEX
  8
trigger3
 10
4.090000
 20
1.249000
  0
VERTEX
  8
trigger3
 10
4.101000
 20
1.252000
  0
VERTEX
  8
trigger3
 10
4.113000
 20
1.251000
  0
VERTEX
  8
trigger3
 10
4.122000
 20
1.245000
  0
VERTEX
  8
trigger3
 10
4.129000
 20
1.235000
  0
VERTEX
  8
trigger3
 10
4.130000
 20
1.228000
  0
VERTEX
  8
trigger3
 10
4.129000
 20
1.216000
  0
VERTEX
  8
trigger3
 10
4.124000
 20
1.207000
  0
VERTEX
  8
trigger3
 10
4.114000
 20
1.200000
  0
VERTEX
  8
trigger3
 10
4.103000
 20
1.197000
  0
VERTEX
  8
trigger3
 10
4.091000
 20
1.198000
  0
VERTEX
  8
trigger3
 10
4.086000
 20
1.201000
  0
VERTEX
  8
trigger3
 10
4.081000
 20
1.208000
  0
SEQEND
  8
trigger3
  0
POLYLINE
  8
trigger3
 62
3
 40
0.010000
 41
0.010000
 66
  1
 70
  1
  0
VERTEX
  8
trigger3
 10
4.156000
 20
1.293000
  0
VERTEX
  8
trigger3
 10
4.146000
 20
1.287000
  0
VERTEX
  8
trigger3
 10
4.141000
 20
1.274000
  0
VERTEX
  8
trigger3
 10
4.142000
 20
1.254000
  0
VERTEX
  8
trigger3
 10
4.145000
 20
1.243000
  0
VERTEX
  8
trigger3
 10
4.153000
 20
1.226000
  0
VERTEX
  8
trigger3
 10
4.163000
 20
1.216000
  0
VERTEX
  8
trigger3
 10
4.175000
 20
1.216000
  0
VERTEX
  8
trigger3
 10
4.183000
 20
1.217000
  0
VERTEX
  8
trigger3
 10
4.193000
 20
1.224000
  0
VERTEX
  8
trigger3
 10
4.198000
 20
1.237000
  0
VERTEX
  8
trigger3
 10
4.197000
 20
1.256000
  0
VERTEX
  8
trigger3
 10
4.194000
 20
1.267000
  0
VERTEX
  8
trigger3
 10
4.186000
 20
1.285000
  0
VERTEX
  8
trigger3
 10
4.176000
 20
1.294000
  0
VERTEX
  8
trigger3
 10
4.164000
 20
1.295000
  0
VERTEX
  8
trigger3
 10
4.156000
 20
1.293000
  0
SEQEND
  8
trigger3
  0
POLYLINE
  8
trigger3
 62
3
 40
0.010000
 41
0.010000
 66
  1
 70
  0
  0
VERTEX
  8
trigger3
 10
4.207000
 20
1.306000
  0
VERTEX
  8
trigger3
 10
4.204000
 20
1.301000
  0
VERTEX
  8
trigger3
 10
4.210000
 20
1.279000
  0
SEQEND
  8
trigger3
  0
POLYLINE
  8
trigger3
 62
3
 40
0.010000
 41
0.010000
 66
  1
 70
  0
  0
VERTEX
  8
trigger3
 10
4.208000
 20
1.302000
  0
VERTEX
  8
trigger3
 10
4.210000
 20
1.279000
  0
SEQEND
  8
trigger3
  0
POLYLINE
  8
trigger3
 62
3
 40
0.010000
 41
0.010000
 66
  1
 70
  0
  0
VERTEX
  8
trigger3
 10
4.207000
 20
1.306000
  0
VERTEX
  8
trigger3
 10
4.211000
 20
1.303000
  0
VERTEX
  8
trigger3
 10
4.210000
 20
1.279000
  0
SEQEND
  8
trigger3
  0
POLYLINE
  8
trigger3
 62
3
 40
0.010000
 41
0.010000
 66
  1
 70
  0
  0
VERTEX
  8
trigger3
 10
4.240000
 20
1.314000
  0
VERTEX
  8
trigger3
 10
4.237000
 20
1.309000
  0
VERTEX
  8
trigger3
 10
4.243000
 20
1.287000
  0
SEQEND
  8
trigger3
  0
POLYLINE
  8
trigger3
 62
3
 40
0.010000
 41
0.010000
 66
  1
 70
  0
  0
VERTEX
  8
trigger3
 10
4.241000
 20
1.310000
  0
VERTEX
  8
trigger3
 10
4.243000
 20
1.287000
  0
SEQEND
  8
trigger3
  0
POLYLINE
  8
trigger3
 62
3
 40
0.010000
 41
0.010000
 66
  1
 70
  0
  0
VERTEX
  8
trigger3
 10
4.240000
 20
1.314000
  0
VERTEX
  8
trigger3
 10
4.245000
 20
1.311000
  0
VERTEX
  8
trigger3
 10
4.243000
 20
1.287000
  0
SEQEND
  8
trigger3
  0
POLYLINE
  8
trigger3
 62
3
 40
0.010000
 41
0.010000
 66
  1
 70
  0
  0
VERTEX
  8
trigger3
 10
4.357000
 20
1.331000
  0
VERTEX
  8
trigger3
 10
4.374000
 20
1.265000
  0
SEQEND
  8
trigger3
  0
POLYLINE
  8
trigger3
 62
3
 40
0.010000
 41
0.010000
 66
  1
 70
  0
  0
VERTEX
  8
trigger3
 10
4.332000
 20
1.290000
  0
VERTEX
  8
trigger3
 10
4.399000
 20
1.306000
  0
SEQEND
  8
trigger3
  0
POLYLINE
  8
trigger3
 62
3
 40
0.010000
 41
0.010000
 66
  1
 70
  0
  0
VERTEX
  8
trigger3
 10
4.432000
 20
1.268000
  0
VERTEX
  8
trigger3
 10
4.462000
 20
1.369000
  0
SEQEND
  8
trigger3
  0
POLYLINE
  8
trigger3
 62
3
 40
0.010000
 41
0.010000
 66
  1
 70
  0
  0
VERTEX
  8
trigger3
 10
4.478000
 20
1.326000
  0
VERTEX
  8
trigger3
 10
4.545000
 20
1.343000
  0
SEQEND
  8
trigger3
  0
POLYLINE
  8
trigger3
 62
3
 40
0.010000
 41
0.010000
 66
  1
 70
  1
  0
VERTEX
  8
trigger3
 10
4.640000
 20
1.414000
  0
VERTEX
  8
trigger3
 10
4.630000
 20
1.407000
  0
VERTEX
  8
trigger3
 10
4.625000
 20
1.394000
  0
VERTEX
  8
trigger3
 10
4.626000
 20
1.375000
  0
VERTEX
  8
trigger3
 10
4.629000
 20
1.364000
  0
VERTEX
  8
trigger3
 10
4.637000
 20
1.346000
  0
VERTEX
  8
trigger3
 10
4.647000
 20
1.337000
  0
VERTEX
  8
trigger3
 10
4.659000
 20
1.336000
  0
VERTEX
  8
trigger3
 10
4.667000
 20
1.338000
  0
VERTEX
  8
trigger3
 10
4.677000
 20
1.344000
  0
VERTEX
  8
trigger3
 10
4.681000
 20
1.357000
  0
VERTEX
  8
trigger3
 10
4.680000
 20
1.377000
  0
VERTEX
  8
trigger3
 10
4.678000
 20
1.388000
  0
VERTEX
  8
trigger3
 10
4.669000
 20
1.405000
  0
VERTEX
  8
trigger3
 10
4.659000
 20
1.415000
  0
VERTEX
  8
trigger3
 10
4.647000
 20
1.416000
  0
VERTEX
  8
trigger3
 10
4.640000
 20
1.414000
  0
SEQEND
  8
trigger3
  0
POLYLINE
  8
trigger3
 62
3
 40
0.010000
 41
0.010000
 66
  1
 70
  1
  0
VERTEX
  8
trigger3
 10
4.708000
 20
1.356000
  0
VERTEX
  8
trigger3
 10
4.705000
 20
1.352000
  0
VERTEX
  8
trigger3
 10
4.710000
 20
1.349000
  0
VERTEX
  8
trigger3
 10
4.713000
 20
1.353000
  0
VERTEX
  8
trigger3
 10
4.708000
 20
1.356000
  0
SEQEND
  8
trigger3
  0
POLYLINE
  8
trigger3
 62
3
 40
0.010000
 41
0.010000
 66
  1
 70
  1
  0
VERTEX
  8
trigger3
 10
4.733000
 20
1.437000
  0
VERTEX
  8
trigger3
 10
4.723000
 20
1.431000
  0
VERTEX
  8
trigger3
 10
4.719000
 20
1.418000
  0
VERTEX
  8
trigger3
 10
4.719000
 20
1.398000
  0
VERTEX
  8
trigger3
 10
4.722000
 20
1.387000
  0
VERTEX
  8
trigger3
 10
4.731000
 20
1.370000
  0
VERTEX
  8
trigger3
 10
4.741000
 20
1.360000
  0
VERTEX
  8
trigger3
 10
4.753000
 20
1.359000
  0
VERTEX
  8
trigger3
 10
4.760000
 20
1.361000
  0
VERTEX
  8
trigger3
 10
4.770000
 20
1.368000
  0
VERTEX
  8
trigger3
 10
4.775000
 20
1.381000
  0
VERTEX
  8
trigger3
 10
4.774000
 20
1.400000
  0
VERTEX
  8
trigger3
 10
4.771000
 20
1.411000
  0
VERTEX
  8
trigger3
 10
4.763000
 20
1.429000
  0
VERTEX
  8
trigger3
 10
4.753000
 20
1.438000
  0
VERTEX
  8
trigger3
 10
4.741000
 20
1.439000
  0
VERTEX
  8
trigger3
 10
4.733000
 20
1.437000
  0
SEQEND
  8
trigger3
  0
POLYLINE
  8
trigger3
 62
3
 40
0.010000
 41
0.010000
 66
  1
 70
  0
  0
VERTEX
  8
trigger3
 10
4.789000
 20
1.431000
  0
VERTEX
  8
trigger3
 10
4.788000
 20
1.435000
  0
VERTEX
  8
trigger3
 10
4.790000
 20
1.443000
  0
VERTEX
  8
trigger3
 10
4.792000
 20
1.448000
  0
VERTEX
  8
trigger3
 10
4.799000
 20
1.453000
  0
VERTEX
  8
trigger3
 10
4.814000
 20
1.457000
  0
VERTEX
  8
trigger3
 10
4.822000
 20
1.455000
  0
VERTEX
  8
trigger3
 10
4.826000
 20
1.452000
  0
VERTEX
  8
trigger3
 10
4.832000
 20
1.446000
  0
VERTEX
  8
trigger3
 10
4.834000
 20
1.439000
  0
VERTEX
  8
trigger3
 10
4.832000
 20
1.430000
  0
VERTEX
  8
trigger3
 10
4.827000
 20
1.417000
  0
VERTEX
  8
trigger3
 10
4.800000
 20
1.371000
  0
VERTEX
  8
trigger3
 10
4.851000
 20
1.384000
  0
SEQEND
  8
trigger3
  0
POLYLINE
  8
trigger3
 62
3
 40
0.010000
 41
0.010000
 66
  1
 70
  0
  0
VERTEX
  8
trigger3
 10
4.853000
 20
1.467000
  0
VERTEX
  8
trigger3
 10
4.850000
 20
1.462000
  0
VERTEX
  8
trigger3
 10
4.856000
 20
1.440000
  0
SEQEND
  8
trigger3
  0
POLYLINE
  8
trigger3
 62
3
 40
0.010000
 41
0.010000
 66
  1
 70
  0
  0
VERTEX
  8
trigger3
 10
4.854000
 20
1.463000
  0
VERTEX
  8
trigger3
 10
4.856000
 20
1.440000
  0
SEQEND
  8
trigger3
  0
POLYLINE
  8
trigger3
 62
3
 40
0.010000
 41
0.010000
 66
  1
 70
  0
  0
VERTEX
  8
trigger3
 10
4.853000
 20
1.467000
  0
VERTEX
  8
trigger3
 10
4.858000
 20
1.464000
  0
VERTEX
  8
trigger3
 10
4.856000
 20
1.440000
  0
SEQEND
  8
trigger3
  0
POLYLINE
  8
trigger3
 62
3
 40
0.010000
 41
0.010000
 66
  1
 70
  0
  0
VERTEX
  8
trigger3
 10
4.886000
 20
1.475000
  0
VERTEX
  8
trigger3
 10
4.884000
 20
1.471000
  0
VERTEX
  8
trigger3
 10
4.889000
 20
1.448000
  0
SEQEND
  8
trigger3
  0
POLYLINE
  8
trigger3
 62
3
 40
0.010000
 41
0.010000
 66
  1
 70
  0
  0
VERTEX
  8
trigger3
 10
4.887000
 20
1.471000
  0
VERTEX
  8
trigger3
 10
4.889000
 20
1.448000
  0
SEQEND
  8
trigger3
  0
POLYLINE
  8
trigger3
 62
3
 40
0.010000
 41
0.010000
 66
  1
 70
  0
  0
VERTEX
  8
trigger3
 10
4.886000
 20
1.475000
  0
VERTEX
  8
trigger3
 10
4.891000
 20
1.472000
  0
VERTEX
  8
trigger3
 10
4.889000
 20
1.448000
  0
SEQEND
  8
trigger3
  0
POLYLINE
  8
trigger3
 62
3
 40
0.010000
 41
0.010000
 66
  1
 70
  0
  0
VERTEX
  8
trigger3
 10
3.150000
 20
2.127000
  0
VERTEX
  8
trigger3
 10
3.158000
 20
2.131000
  0
VERTEX
  8
trigger3
 10
3.169000
 20
2.142000
  0
VERTEX
  8
trigger3
 10
3.169000
 20
2.062000
  0
SEQEND
  8
trigger3
  0
POLYLINE
  8
trigger3
 62
3
 40
0.010000
 41
0.010000
 66
  1
 70
  1
  0
VERTEX
  8
trigger3
 10
3.232000
 20
2.142000
  0
VERTEX
  8
trigger3
 10
3.220000
 20
2.138000
  0
VERTEX
  8
trigger3
 10
3.212000
 20
2.127000
  0
VERTEX
  8
trigger3
 10
3.209000
 20
2.108000
  0
VERTEX
  8
trigger3
 10
3.209000
 20
2.096000
  0
VERTEX
  8
trigger3
 10
3.212000
 20
2.077000
  0
VERTEX
  8
trigger3
 10
3.220000
 20
2.066000
  0
VERTEX
  8
trigger3
 10
3.232000
 20
2.062000
  0
VERTEX
  8
trigger3
 10
3.239000
 20
2.062000
  0
VERTEX
  8
trigger3
 10
3.251000
 20
2.066000
  0
VERTEX
  8
trigger3
 10
3.258000
 20
2.077000
  0
VERTEX
  8
trigger3
 10
3.262000
 20
2.096000
  0
VERTEX
  8
trigger3
 10
3.262000
 20
2.108000
  0
VERTEX
  8
trigger3
 10
3.258000
 20
2.127000
  0
VERTEX
  8
trigger3
 10
3.251000
 20
2.138000
  0
VERTEX
  8
trigger3
 10
3.239000
 20
2.142000
  0
VERTEX
  8
trigger3
 10
3.232000
 20
2.142000
  0
SEQEND
  8
trigger3
  0
POLYLINE
  8
trigger3
 62
3
 40
0.010000
 41
0.010000
 66
  1
 70
  0
  0
VERTEX
  8
trigger3
 10
3.388000
 20
2.142000
  0
VERTEX
  8
trigger3
 10
3.388000
 20
2.062000
  0
SEQEND
  8
trigger3
  0
POLYLINE
  8
trigger3
 62
3
 40
0.010000
 41
0.010000
 66
  1
 70
  0
  0
VERTEX
  8
trigger3
 10
3.388000
 20
2.104000
  0
VERTEX
  8
trigger3
 10
3.381000
 20
2.112000
  0
VERTEX
  8
trigger3
 10
3.373000
 20
2.115000
  0
VERTEX
  8
trigger3
 10
3.362000
 20
2.115000
  0
VERTEX
  8
trigger3
 10
3.354000
 20
2.112000
  0
VERTEX
  8
trigger3
 10
3.347000
 20
2.104000
  0
VERTEX
  8
trigger3
 10
3.343000
 20
2.092000
  0
VERTEX
  8
trigger3
 10
3.343000
 20
2.085000
  0
VERTEX
  8
trigger3
 10
3.347000
 20
2.073000
  0
VERTEX
  8
trigger3
 10
3.354000
 20
2.066000
  0
VERTEX
  8
trigger3
 10
3.362000
 20
2.062000
  0
VERTEX
  8
trigger3
 10
3.373000
 20
2.062000
  0
VERTEX
  8
trigger3
 10
3.381000
 20
2.066000
  0
VERTEX
  8
trigger3
 10
3.388000
 20
2.073000
  0
SEQEND
  8
trigger3
  0
POLYLINE
  8
trigger3
 62
3
 40
0.010000
 41
0.010000
 66
  1
 70
  0
  0
VERTEX
  8
trigger3
 10
3.410000
 20
2.092000
  0
VERTEX
  8
trigger3
 10
3.455000
 20
2.092000
  0
VERTEX
  8
trigger3
 10
3.455000
 20
2.100000
  0
VERTEX
  8
trigger3
 10
3.452000
 20
2.108000
  0
VERTEX
  8
trigger3
 10
3.448000
 20
2.112000
  0
VERTEX
  8
trigger3
 10
3.440000
 20
2.115000
  0
VERTEX
  8
trigger3
 10
3.429000
 20
2.115000
  0
VERTEX
  8
trigger3
 10
3.421000
 20
2.112000
  0
VERTEX
  8
trigger3
 10
3.414000
 20
2.104000
  0
VERTEX
  8
trigger3
 10
3.410000
 20
2.092000
  0
VERTEX
  8
trigger3
 10
3.410000
 20
2.085000
  0
VERTEX
  8
trigger3
 10
3.414000
 20
2.073000
  0
VERTEX
  8
trigger3
 10
3.421000
 20
2.066000
  0
VERTEX
  8
trigger3
 10
3.429000
 20
2.062000
  0
VERTEX
  8
trigger3
 10
3.440000
 20
2.062000
  0
VERTEX
  8
trigger3
 10
3.448000
 20
2.066000
  0
VERTEX
  8
trigger3
 10
3.455000
 20
2.073000
  0
SEQEND
  8
trigger3
  0
POLYLINE
  8
trigger3
 62
3
 40
0.010000
 41
0.010000
 66
  1
 70
  0
  0
VERTEX
  8
trigger3
 10
3.518000
 20
2.115000
  0
VERTEX
  8
trigger3
 10
3.518000
 20
2.054000
  0
VERTEX
  8
trigger3
 10
3.514000
 20
2.043000
  0
VERTEX
  8
trigger3
 10
3.511000
 20
2.039000
  0
VERTEX
  8
trigger3
 10
3.503000
 20
2.035000
  0
VERTEX
  8
trigger3
 10
3.492000
 20
2.035000
  0
VERTEX
  8
trigger3
 10
3.484000
 20
2.039000
  0
SEQEND
  8
trigger3
  0
POLYLINE
  8
trigger3
 62
3
 40
0.010000
 41
0.010000
 66
  1
 70
  0
  0
VERTEX
  8
trigger3
 10
3.518000
 20
2.104000
  0
VERTEX
  8
trigger3
 10
3.511000
 20
2.112000
  0
VERTEX
  8
trigger3
 10
3.503000
 20
2.115000
  0
VERTEX
  8
trigger3
 10
3.492000
 20
2.115000
  0
VERTEX
  8
trigger3
 10
3.484000
 20
2.112000
  0
VERTEX
  8
trigger3
 10
3.476000
 20
2.104000
  0
VERTEX
  8
trigger3
 10
3.473000
 20
2.092000
  0
VERTEX
  8
trigger3
 10
3.473000
 20
2.085000
  0
VERTEX
  8
trigger3
 10
3.476000
 20
2.073000
  0
VERTEX
  8
trigger3
 10
3.484000
 20
2.066000
  0
VERTEX
  8
trigger3
 10
3.492000
 20
2.062000
  0
VERTEX
  8
trigger3
 10
3.503000
 20
2.062000
  0
VERTEX
  8
trigger3
 10
3.511000
 20
2.066000
  0
VERTEX
  8
trigger3
 10
3.518000
 20
2.073000
  0
SEQEND
  8
trigger3
  0
POLYLINE
  8
trigger3
 62
3
 40
0.010000
 41
0.010000
 66
  1
 70
  0
  0
VERTEX
  8
trigger3
 10
3.540000
 20
2.115000
  0
VERTEX
  8
trigger3
 10
3.540000
 20
2.062000
  0
SEQEND
  8
trigger3
  0
POLYLINE
  8
trigger3
 62
3
 40
0.010000
 41
0.010000
 66
  1
 70
  0
  0
VERTEX
  8
trigger3
 10
3.540000
 20
2.092000
  0
VERTEX
  8
trigger3
 10
3.543000
 20
2.104000
  0
VERTEX
  8
trigger3
 10
3.551000
 20
2.112000
  0
VERTEX
  8
trigger3
 10
3.559000
 20
2.115000
  0
VERTEX
  8
trigger3
 10
3.570000
 20
2.115000
  0
SEQEND
  8
trigger3
  0
POLYLINE
  8
trigger3
 62
3
 40
0.010000
 41
0.010000
 66
  1
 70
  0
  0
VERTEX
  8
trigger3
 10
3.577000
 20
2.092000
  0
VERTEX
  8
trigger3
 10
3.623000
 20
2.092000
  0
VERTEX
  8
trigger3
 10
3.623000
 20
2.100000
  0
VERTEX
  8
trigger3
 10
3.619000
 20
2.108000
  0
VERTEX
  8
trigger3
 10
3.615000
 20
2.112000
  0
VERTEX
  8
trigger3
 10
3.608000
 20
2.115000
  0
VERTEX
  8
trigger3
 10
3.596000
 20
2.115000
  0
VERTEX
  8
trigger3
 10
3.589000
 20
2.112000
  0
VERTEX
  8
trigger3
 10
3.581000
 20
2.104000
  0
VERTEX
  8
trigger3
 10
3.577000
 20
2.092000
  0
VERTEX
  8
trigger3
 10
3.577000
 20
2.085000
  0
VERTEX
  8
trigger3
 10
3.581000
 20
2.073000
  0
VERTEX
  8
trigger3
 10
3.589000
 20
2.066000
  0
VERTEX
  8
trigger3
 10
3.596000
 20
2.062000
  0
VERTEX
  8
trigger3
 10
3.608000
 20
2.062000
  0
VERTEX
  8
trigger3
 10
3.615000
 20
2.066000
  0
VERTEX
  8
trigger3
 10
3.623000
 20
2.073000
  0
SEQEND
  8
trigger3
  0
POLYLINE
  8
trigger3
 62
3
 40
0.010000
 41
0.010000
 66
  1
 70
  0
  0
VERTEX
  8
trigger3
 10
3.640000
 20
2.092000
  0
VERTEX
  8
trigger3
 10
3.686000
 20
2.092000
  0
VERTEX
  8
trigger3
 10
3.686000
 20
2.100000
  0
VERTEX
  8
trigger3
 10
3.682000
 20
2.108000
  0
VERTEX
  8
trigger3
 10
3.678000
 20
2.112000
  0
VERTEX
  8
trigger3
 10
3.671000
 20
2.115000
  0
VERTEX
  8
trigger3
 10
3.659000
 20
2.115000
  0
VERTEX
  8
trigger3
 10
3.652000
 20
2.112000
  0
VERTEX
  8
trigger3
 10
3.644000
 20
2.104000
  0
VERTEX
  8
trigger3
 10
3.640000
 20
2.092000
  0
VERTEX
  8
trigger3
 10
3.640000
 20
2.085000
  0
VERTEX
  8
trigger3
 10
3.644000
 20
2.073000
  0
VERTEX
  8
trigger3
 10
3.652000
 20
2.066000
  0
VERTEX
  8
trigger3
 10
3.659000
 20
2.062000
  0
VERTEX
  8
trigger3
 10
3.671000
 20
2.062000
  0
VERTEX
  8
trigger3
 10
3.678000
 20
2.066000
  0
VERTEX
  8
trigger3
 10
3.686000
 20
2.073000
  0
SEQEND
  8
trigger3
  0
POLYLINE
  8
trigger3
 62
3
 40
0.010000
 41
0.010000
 66
  1
 70
  0
  0
VERTEX
  8
trigger3
 10
3.745000
 20
2.104000
  0
VERTEX
  8
trigger3
 10
3.741000
 20
2.112000
  0
VERTEX
  8
trigger3
 10
3.730000
 20
2.115000
  0
VERTEX
  8
trigger3
 10
3.718000
 20
2.115000
  0
VERTEX
  8
trigger3
 10
3.707000
 20
2.112000
  0
VERTEX
  8
trigger3
 10
3.703000
 20
2.104000
  0
VERTEX
  8
trigger3
 10
3.707000
 20
2.096000
  0
VERTEX
  8
trigger3
 10
3.714000
 20
2.092000
  0
VERTEX
  8
trigger3
 10
3.733000
 20
2.089000
  0
VERTEX
  8
trigger3
 10
3.741000
 20
2.085000
  0
VERTEX
  8
trigger3
 10
3.745000
 20
2.077000
  0
VERTEX
  8
trigger3
 10
3.745000
 20
2.073000
  0
VERTEX
  8
trigger3
 10
3.741000
 20
2.066000
  0
VERTEX
  8
trigger3
 10
3.730000
 20
2.062000
  0
VERTEX
  8
trigger3
 10
3.718000
 20
2.062000
  0
VERTEX
  8
trigger3
 10
3.707000
 20
2.066000
  0
VERTEX
  8
trigger3
 10
3.703000
 20
2.073000
  0
SEQEND
  8
trigger3
  0
ENDSEC
  0
EOF
